Oops, an error
Loading. Please wait.

Annie Tab

version 1
version 1

Whole song

Interactive

8,831 views 3 this week
no commentswrite comment
1 2 3 4 5
excellent!
x 3
add to favorites
launch autoscroll
font size
0
reset
how to read this tab
guitar tuner
Autoscroll
slow
fast
+/-
esc
set tempo
stop
Help us to improve Ultimate-Guitar.com Take our survey!
×
Author
Difficulty
novice
----------------------------------------------------------------------------
                             Annie - Safetysuit
----------------------------------------------------------------------------

Tabbed by:bassface01
Email: guneagleluke@charter.net

Tuning: Standard (eBGDAE)

Intro:
D
There was a girl named Annie
D                         
She had a very pretty face
G
And not in the way you would think so
G
Let me see if I can try to explain it
D
She had a smile that would light up a room
D
And when she moved she'd be moving you
G
But it wasnt like a magazine 
G                                        D5
She was just plain Jane and her name was Annie


Verse:
Guitar 1:
e|---------------------------------------|
B|---------------------------------------|
G|7--------77----6--77----------------6--|
D|7--------77----6--77--7--55--4--55--6--|
A|5--------55----4--55--7--55--4--55--4--|
E|----------------------5--33--2--33-----|
  Fade in

e|-----------------------------------------------------------------|
B|-----------------------------------------------------------------|
G|7-7-7-7-7-7-7-7-7-7-7-7-7-7-7-7----------------------------------|
D|7-7-7-7-7-7-7-7-7-7-7-7-7-7-7-7-5-5-5-5-5-5-5-5-5-5-5-5-5-5-5-5--|
A|5-5-5-5-5-5-5-5-5-5-5-5-5-5-5-5-5-5-5-5-5-5-5-5-5-5-5-5-5-5-5-5--|
E|--------------------------------3-3-3-3-3-3-3-3-3-3-3-3-3-3-3-3--|
PM---------------------------------------------------------------|

This might not be entirely correct
Guitar 2:
e|-----------------------------------------------------------------|
B|---777-------------777-------------777-------------777-----------|
G|------677777777-------677777777-------677777777-------677777777--|
D|777-------------777-------------555-------------555--------------|
A|-----------------------------------------------------------------|
E|-----------------------------------------------------------------|
PM---------------------------------------------------------------|

Chorus:
Guitar 1:
e|-----------------------------------------------------------------|
B|-----------------------------------------------------------------|
G|7-7-7-7-7-7-7-7-7-7-7-7-7-7-7-7----------------------------------|
D|7-7-7-7-7-7-7-7-7-7-7-7-7-7-7-7-5-5-5-5-5-5-5-5-5-5-5-5-5-5-5-5--|
A|5-5-5-5-5-5-5-5-5-5-5-5-5-5-5-5-5-5-5-5-5-5-5-5-5-5-5-5-5-5-5-5--|
E|--------------------------------3-3-3-3-3-3-3-3-3-3-3-3-3-3-3-3--|

Guitar 2:
e|-----------------------------------------------------------------|
B|---777-------------777-------------777-------------777-----------|
G|------677777777-------677777777-------677777777-------677777777--|
D|777-------------777-------------555-------------555--------------|
A|-----------------------------------------------------------------|
E|-----------------------------------------------------------------|

Post-Chorus:
Guitar 2:
e|----------------|
B|---777----------|
G|------677777777-|
D|777-------------|
A|----------------|
E|----------------|
There's a mix of pinch harmonics on the D's 

Break:
e|--14----14----14----14----15----15----15----15-----|
B|----15----15----15----15----15----15----15----15---|
G|14----14----14----14----14----14----14----14-------| x2
D|---------------------------------------------------|
A|---------------------------------------------------|
E|---------------------------------------------------|

3rd Chorus:
Guitar 1:
e|-----------------------------------------------------------------|
B|-----------------------------------------------------------------|
G|7----------------------------------------------------------------|
D|7-------------------------------5--------------------------------|
A|5-------------------------------5--------------------------------|
E|--------------------------------3--------------------------------|

Guitar 2:
e|-----------------------------------------------------------------|
B|---777-------------777-------------777-------------777-----------|
G|------677777777-------677777777-------677777777-------677777777--|
D|777-------------777-------------555-------------555--------------|
A|-----------------------------------------------------------------|
E|-----------------------------------------------------------------|

Ending:

Guitar 1 plays the chorus

Guitar 2:
e|------19----17------|
B|---15----19----15---|
G|18------------------|
D|--------------------|
A|--------------------|
E|--------------------|


| /  slide up
| \  slide down
| h  hammer-on
| p  pull-off
| ~  vibrato
| +  harmonic
| x  Mute note
============================================================================
Suggest correction
What's this?
You can suggest a correction to this tab. Community and Mods will review your correction and vote to approve or reject it.
comments
We did not receive enough feedback on this tab! Please rate:
print report bad tab
1 2 3 4 5
guest
You may want to rate the tab now too:
select rating
Please do not post tabs as comments. Select "correction" instead!