Oops, an error
Loading. Please wait.

Hallelujah Tab

3,213 views 1 this week
no commentswrite comment
1 2 3 4 5
please rate
add to favorites
launch autoscroll
font size
0
reset
how to read this tab
guitar tuner
Autoscroll
slow
fast
+/-
esc
set tempo
stop
Help us to improve Ultimate-Guitar.com Take our survey!
×
Author
Difficulty
intermediate
Standard tuning
Solo begins at 1:46

e||---------------|---------------|---------------|---------------||
B||------------13-|------12-13-13-|------12-13-12-|------12-13-13-||
G||---------------|-12-14---------|-12-14---------|-12-14---------||
D||---------------|---------------|---------------|---------------||
A||---------------|--Six Times----|--Two Times----|--Three Times--||
E||---------------|---------------|---------------|---------------||

e||---------------|---------------|---------------|---------------||
B||------13h15p13-|------12-13-13-|------12-13-12-|------12-13----||
G||-12-14---------|-12-14---------|-12-14---------|-12-14---------||
D||---------------|---------------|---------------|---------------||
A||---------------|--Two Times----|--Two Times----|---------------||
E||---------------|---------------|---------------|---------------||

e||-----------------------------------------------|---------------||
B||-15-13-12--------------------------------------|------------13-||
G||---------14-12---------------------------------|---------------||
D||--------------15-14-12-------------------------|---------------||
A||----------------------15-14-12-----------------|---------------||
E||------------------------------15-13~15~17~20~--|---------------||

e||---------------|---------------|---------------|---------------||
B||------12-13-13-|------12-13-12-|------12-13-13-|------13h15p13-||
G||-12-14---------|-12-14---------|-12-14---------|-12-14---------||
D||---------------|---------------|---------------|---------------||
A||---------------|--Two Times----|--Two Times----|---------------||
E||---------------|---------------|---------------|---------------||

e||---------------|---------------|-------15-15-15\-||
B||------12-13-13-|------12-13-12-|-------13-13-13\-||
G||-12-14---------|-12-14---------|-12-14-12-12-12\-||
D||---------------|---------------|-----------------||
A||--Three Times--|---------------|-----------------||
E||---------------|---------------|-----------------||
Suggest correction
Give kudos to tab author, rate the tab!
1 2 3 4 5
comments
print report bad tab
guest
You may want to rate the tab now too:
select rating
Please do not post tabs as comments. Select "correction" instead!