Oops, an error
Loading. Please wait.

Hallelujah Tab

3,390 views 1 this week
no commentswrite comment
1 2 3 4 5
1 last vote to show rating
add to favorites
×
Save as Personal and add changes to this tab that will be seen only by you. Learn more ›
×
You can save this tab as Personal to edit and correct it or add notes. All changes will be seen only by you. Learn more »
save as personal
new!
launch autoscroll
font size
0
reset
how to read this tab
guitar tuner
Autoscroll
slow
fast
+/-
esc
set tempo
stop
Author
Difficulty
Tuning
intermediate
E A D G B E
Standard tuning
Solo begins at 1:46

e||---------------|-------------|-------------|-------------||
B||------------13-|------12-13--|------12-12--|------12-13--||
G||---------------|-12-14-------|-12-14-------|-12-14-------||
D||---------------|-------------|-------------|-------------||
A||---------------|-----x5------|-----x2------|-----x3------||
E||---------------|-------------|-------------|-------------||

e||------------|-------------|-------------|-------------||
B||------15p13-|------12-13--|------12-12--|------12-----||
G||-12-14------|-12-14-------|-12-14-------|-12-14-------||
D||------------|-------------|-------------|-------------||
A||------------|-----x2------|-----x2------|-------------||
E||------------|-------------|-------------|-------------||

e||-------------------------------------------------|---------------||
B||-13-12-------------------------------------------|------------13-||
G||-------14-12-------------------------------------|---------------||
D||--------------15-14-12---------------------------|---------------||
A||----------------------15-14-12------12~14~15~19--|---------------||
E||------------------------------15-13--------------|---------------||

e||-------------|-------------|-------------|------------||
B||------12-13--|------12-13--|------12-13--|------15p13-||
G||-12-14-------|-12-14-------|-12-14-------|-12-14------||
D||-------------|-------------|-------------|------------||
A||-------------|-----x2------|-----x2------|------------||
E||-------------|-------------|-------------|------------||

e||-------------|-------------|--------------------||
B||------12-13--|------12-12--|-------12-13-13-13/-||
G||-12-14-------|-12-14-------|-12-14----12-12-12/-||
D||-------------|-------------|--------------------||
A||-----x3------|-------------|--------------------||
E||-------------|-------------|--------------------||
Suggest correction
Give kudos to tab author, rate the tab!
1 2 3 4 5
comments
print report bad tab
guest
You may want to rate the tab now too:
select rating
Wanna post a correction for this tab? Suggest correction