Oops, an error
Loading. Please wait.

Drip Drop Tab

558 views 1 this week
no commentswrite comment
1 2 3 4 5
3 more votes to show rating
add to favorites
launch autoscroll
font size
0
reset
how to read this tab
guitar tuner
Autoscroll
slow
fast
+/-
esc
set tempo
stop
Help us to improve Ultimate-Guitar.com Take our survey!
×
Author
-------------------------------------------------------------------------------
                             Drip Drop - Safura
-------------------------------------------------------------------------------
Tabbed by:My_Cort
Email:my_cort@hotmail.com

Tuning:Standard

************************************

| /   slide up
| \   slide down
| h   hammer-on
| p   pull-off
| ~   vibrato
| +   harmonic
| x   Mute note
| b   Bend
| pb  Pre-bend
| br  Bend release
| pbr Pre-bend release
| brb Bend release bend

************************************

Guitar Fill:

Intro and verse
                             You are.. 
e|-------------------------------------------------------------|
B|------4---4-----6---------6---6-----6---6---2---2---2---2----|
G|-----4---4-----8---------8---8-----8---8---3---3---1---1-----|
D|----6---6---6/9---------8---8---8/9---9---4---4---3---3------|
A|-------------------------------------------------------------|
E|-------------------------------------------------------------|
      I know..
e|----------------------------------1---1----|
B|------6---6------7---7---2---2---3---3-----|
G|-----8---8-----10--10---3---3---3---3------|
D|----8---8---8/9---9----4---4---------------|
A|-------------------------------------------|
E|-------------------------------------------|
      But these..
e|-----------------------------------------|
B|------6---6-----6---6---2---2---2---2----|
G|-----8---8-----8---8---3---3---1---1-----|
D|----8---8---8/9---9---4---4---3---3------|
A|-----------------------------------------|
E|-----------------------------------------|
     Am I in..
e|------------------------|
B|------4---4------6------|
G|-----4---4------8-10----|
D|----6---6----6/9--------|
A|------------------------|
E|------------------------|

Chorous:

     Ebm  B     F#            C#
Can I love you forever through this?
      Ebm     B      Abm7          Bb7
Can I trust in you forever through this?

             Badd9        Bb7
I don’t know how to stop, how to stop.

(Guitar Fill Right before Drip drop part)
    I don't know..
e|-----------------------------------|
B|------7-----7---6------------------|
G|-----8---6-8---7-------------------|
D|----9---------8--------------------|
A|-----------------------------------|
E|-----------------------------------|


      Ebm
These teardro o- ops,
   B
That drip drop, drip drop,
F#
Drip drop, drip drop,
   Bb7
Whoah, whoah

B-part:

Abm7                 Ebm
  I don’t wanna cry,
                       F#
I don’t wanna hear your name,
  C#               Abm7
If this is where it ends.
                   Ebm
I don’t wanna run,
                C#
Run away from myself
       Bb7sus4 Bb7
And be lost again...

Chorus      
Suggest correction
Give kudos to tab author, rate the tab!
1 2 3 4 5
comments
print report bad tab
guest
You may want to rate the tab now too:
select rating
Wanna post a correction for this tab? Suggest correction