Oops, an error
Loading. Please wait.

Three Sheets To The Wind tab

106 views 1 this week
no commentswrite comment
1 2 3 4 5
3 more votes to show rating
add to favorites
×
Save as Personal and add changes to this tab that will be seen only by you. Learn more ›
×
You can save this tab as Personal to edit and correct it or add notes. All changes will be seen only by you. Learn more »
launch autoscroll
font size
0
reset
how to read this tab
guitar tuner
edit
Autoscroll
slow
fast
+/-
esc
set tempo
stop
Originally tabbed by: Nero Galon


[Intro + Verse on Bass]

Just repeat the same note in the pattern, it's easy enough to figure out the timing on your own..

e|---------------------------------------------------------------------------|
B|---------------------------------------------------------------------------|
G|---------------------------------------------------------------------------|
D|---------------------------------------------------------------------------|
A|---------------------------------------------------------------------------|
E|----9-9----------Over and over...------------------------------------------|


[Chorus Riff 1]

e|-----------------------------------|
B|-----------------------------------|
G|-----6-6---------4-4---------------|
D|---------4-4-6-6-----6-6-4-6-4-6---|
A|-----------------------------------|
E|-----------------------------------|

[Chorus 2 Variation]

e|-------2------2------2---4-2-0-2-------------------------------------------|
B|----0-2----0h2----0h2------------------------------------------------------|
G|---------------------------------------------------------------------------|
D|---------------------------------------------------------------------------|
A|---------------------------------------------------------------------------|
E|---------------------------------------------------------------------------|


[Bridge?]

A power chord         harmonics on the 7th fret       Em 

e|-------------------------*7--------------------------------------------------|
B|-------------------------*7--------------------------------------------------|
G|-----------------------------------------------------------------------------|
D|------7----------------------------------------------2-----------------------|
A|------7----------------------------------------------2-----------------------|
E|------5----------------------------------------------0-----------------------|

e|-----------2---------------------------------------------------------------|
B|------0-0h2------0 0h2-4-----You'll find this in here somewhere too--------|
G|---------------------------------------------------------------------------|
D|---------------------------------------------------------------------------|
A|---------------------------------------------------------------------------|
E|---------------------------------------------------------------------------|


[Outro]


Repeat bass line of the 9's. And then use the two variations of the chorus over each other.

Should be everything, if I missed anything or if anything is off then feel free to comment a fix.

            
            
Suggest correction
Creating personal tab
Creating personal tab
You can edit any tab online and save it as your Personal.

You can edit, replace or remove any tab part or add personal notes – all changes will be seen only by you.

Personal tabs can be accessed anytime from any device, even offline.
Learn more »
Give kudos to tab author, rate the tab!
1 2 3 4 5
comments
print report bad tab
guest
Wanna post a correction for this tab? Suggest correction