Oops, an error
Loading. Please wait.

Ill Fly With You Tab

version 1
version 1

Whole song

Interactive

17,243 views 6 this week
1 commentread comment
1 2 3 4 5
3 more votes to show rating
add to favorites
launch autoscroll
font size
0
reset
how to read this tab
guitar tuner
Autoscroll
slow
fast
+/-
esc
set tempo
stop
Help us to improve Ultimate-Guitar.com Take our survey!
×
Author
The Chords are always D maj - F# maj - B min - G maj.
Arpeggious
      D         F#   Bmin        G
e -----0---------0---------0----------0--|
B ---3--3------2--2------3--3-------3--3-|
G --2-2--2----3-3--3----4-4--4-----4-4--4|
D -0---------4---------4----------5------|
A ---------------------------------------|
E ---------------------------------------|


e -------------------------------------|
B --10-9-7----10-9-7-------------------|
G -7--7-7----7--7-7-7------------------|
D -------------------------------------|
A -------------------------------------|
E -------------------------------------|

By MarcoSty
Suggest correction
Give kudos to tab author, rate the tab!
1 2 3 4 5
comments
print report bad tab
1 comment total.
0 reply
telhacerta 163 Apr 08, 2010 11:36 AM

e -------------------------------------|
B --10-8-7----10-8-7-------------------|
G -7--7-7----7--7-7-7------------------|
D -------------------------------------|
A -------------------------------------|
E -------------------------------------|

Instead of playing a G#, try playing a G on the B string.

guest
You may want to rate the tab now too:
select rating
Wanna post a correction for this tab? Suggest correction