Oops, an error
Loading. Please wait.

Your Loving Arms Tab

9,456 views 9 this week
no commentswrite comment
1 2 3 4 5
excellent!
x 1
add to favorites
launch autoscroll
font size
0
reset
how to read this tab
guitar tuner
Tab Pro tools
  • play this tab
  • loop segment
  • change instrument
  • show fretboard
  • metronome
Autoscroll
slow
fast
+/-
esc
set tempo
stop
Contributor

This 100% right I played it with the recording



Intro and chorus:

e|--------------------------------------------------------------------------|
B|--------0----1-------------------------3----------------------------------|
G|------2---2----2--------2--------------------5-----------4h5p4--2-0-------|
D|----2----------------3----3---------5-----5-----5------5------------------|
A|--0----------------3--------3-----5------------------5--------------------|
E|-----------------1--------------3------------------3----------------------|



e|---------------------------------------------------------------------------|
B|-------0---1--------------1-----------------3------------------------------|
G|-----2--------2------2-2-----2--------------------5----------4-------------|
D|---2-----2---------3-----------3---------5------5----------5---5---5-------|
A|-0--------------3---------------------5------------------5-------5---------|
E|----------------1------------------3-------------------3-------------------|


Verse:

e|----------------------------------------------------------------------|
B|--------0-1---1-------------------------------------------------------|
G|------2-----2-----------0--------------2---4-2---------2---4-2--------|
D|----2----------------3-----3---------5---5----------5----5-----5------|
A|--0----------------3---------3-----5--------------5-------------------|
E|-----------------1---------------3--------------3---------------------|



2nd verse:

e|----------------------------------------3--------------------0------|
B|---------0----1---------------------------3--------------------0----|
G|------2-----2---2-------2--------------------4-------------------0--|
D|----2-----------------3---3---3------2---------5--------2-----------|
A|--0-----------------3-------3------2------------------2-------------|
E|------------------1--------------0------------------0---------------|


e|---------------------------1----------------------------------------------|
B|----------0-1-----------------1-------------------------------------------|
G|--------2-----2-----------------2----------4---4---4----------------------|
D|------2---------2-------3----------3---------5-------5--------------------|
A|----0-----------------3-----------------5---------------------------------|
E|--------------------1-----------------3----------3-------3-5/7-7-5-3-5----|



e|---------------------------1-------------------3-0------------------3-0------|
B|----------0-1-----------------1---------------------0-------------------0----|
G|--------2-----2-----------------2---------------------0-----------0-------0--|
D|------2---------2-------3---------3--------2--------------------2------------|
A|----0-----------------3------------------2--------------------0--------------|
E|--------------------1------------------0--------------------0----------------|


lead lick:

e|----4-7-5p4h5---7-10--7h8p7--7----|
B|----------------------------------|
G|----------------------------------|
D|----------------------------------|
A|----------------------------------|
E|----------------------------------|
comments
We did not receive enough feedback on this tab! Please rate:
print report bad tab
1 2 3 4 5
I want to post or [tab]
guest
You may want to rate the tab now too:
select rating
Please do not post tabs as comments. Select "correction" instead!