Oops, an error
Loading. Please wait.

My World Fell Down Bass Tab

4 views 1 this week
no commentswrite comment
1 2 3 4 5
3 more votes to show rating
add to favorites
launch autoscroll
font size
0
reset
guitar tuner
Autoscroll
slow
fast
+/-
esc
set tempo
stop
Help us to improve Ultimate-Guitar.com Take our survey!
×
Author
Difficulty
novice
Tabbed by: 6METAL6BASSIST6
E-mail: petergriffinav@gmail.com

Tuning: EADG

0:26

G|------------------------------------------------------------------------------------------------|
D|------------------6---8-9---------9-9---9-8---6-4-----------------6---8-9---------9-9-----------|
A|----------------------------------------------------------------------------------------------6-|
E|2-----2-----2-----------------7-----------------------2-----2-----------------7-----------7-----|

G|------------------------------------------------|
D|------------------------------------------------|
A|7-----7-----7-----7-----------------------------|
E|------------------------5-----5-----5-----5-----|



1:15

G|------------------------------------------------------------------------------------------------|
D|------------------6---8-9---------9-9---9-8---6-4-----------------6---8-9---------9-9-----------|
A|----------------------------------------------------------------------------------------------6-|
E|2-----2-----2-----------------7-----------------------2-----2-----------------7-----------7-----|

G|------------------------------------------------|
D|------------------------------------------------|
A|7-----7-----7-----7-----------------------------|
E|------------------------5-----5-----5-----5-----|



2:00

G|------------------------------------------------------------------------------------------------|
D|----------4-4-----6---8-9---------9-9---9-8---6-4-----------------6---8-9---9-9---9-9-----------|
A|----------------------------------------------------------------------------------------------6-|
E|2-----2-----------------------7-----------------------2-----2---------------------------7-7-----|

G|------------------------------------------------|
D|----------------------6-------------------------|
A|7-----7-----7-----7-----------------------------|
E|------------------------5-----5-----5-----5-----|



2:19

G|------------------------------------------------------------------------------------------------|
D|------------------6---8-9---------9-9---9-8---6-4-----------------6---8-9-----9---9-9-----------|
A|----------------------------------------------------------------------------------------------6-|
E|2-----2-----2-----------------7-----------------------2-----2-----------------------------7-----|

G|------------------------------------------------|
D|----------------------6-------------------------|
A|7-----7-----7-----7-----------------------------|
E|------------------------5-----5-----5-----5-----|
Suggest correction
Give kudos to tab author, rate the tab!
1 2 3 4 5
comments
print report bad tab
guest
You may want to rate the tab now too:
select rating
Wanna post a correction for this tab? Suggest correction