Oops, an error
Loading. Please wait.

The Keeper Of The Games Bass Tab

13 views 1 this week
no commentswrite comment
1 2 3 4 5
3 more votes to show rating
add to favorites
launch autoscroll
font size
0
reset
guitar tuner
Autoscroll
slow
fast
+/-
esc
set tempo
stop
Help us to improve Ultimate-Guitar.com Take our survey!
×
Author
Difficulty
novice
Tabbed by: 6METAL6BASSIST6
E-mail: petergriffinav@gmail.com

Tuning: EADG

G|----|
D|----|
A|7---|
E|----|

G|--------9-/-11------\---9-------9-------7-----------------------|
D|----7-------------------------------------------9-------7-------| x3
A|7-----------------------------------------------------------7---|
E|----------------------------------------------------------------|

G|--------9-/-11------\---9---------------9-/-11----------9-------|
D|----7-------------------------------7---------------------------|
A|7-------------------------------7-------------------------------|
E|----------------------------------------------------------------|

G|--------9-/-11------\---9-------|
D|----7---------------------------|
A|7-------------------------------|
E|--------------------------------|

0:20

G|--------9-/-11------\---9-------9-------7-----------------------|
D|----7-------------------------------------------9-------7-------| x3
A|7-----------------------------------------------------------7---|
E|----------------------------------------------------------------|

G|--------9-/-11------\---9---------------9-/-11------\---9-------|
D|----7-------------------------------7---------------------------|
A|7-------------------------------7-------------------------------|
E|----------------------------------------------------------------|

G|--------9-/-11------\---9-------|
D|----7---------------------------|
A|7-------------------------------|
E|--------------------------------|

0:40

G|--------9-/-11------\---9-------9-------7-----------------------|
D|----7-------------------------------------------9-------7-------| x3
A|7-----------------------------------------------------------7---|
E|----------------------------------------------------------------|

G|--------9-/-11------\---9---------------9-/-11------\---9-------|
D|----7-------------------------------7---------------------------|
A|7-------------------------------7-------------------------------|
E|----------------------------------------------------------------|

G|--------9-/-11------\---9-------|
D|----7---------------------------|
A|7-------------------------------|
E|--------------------------------|

0:59

G|----------------------------------------------------------------|
D|----------------------------------------------------------------|
A|9-----------9---7-------6-------4-----------4-------6---7-------|
E|----------------------------------------------------------------|

G|----------------------------------------------------------------|
D|----------------------------------------------------------------|
A|9-----------9---7-------6-------4---------------------------4---|
E|----------------------------------------------------5-----------|

G|----------------------------------------------------------------|
D|----------------------------------------------------------------|
A|------------4---------------4-----------------------------------|
E|----5---------------5---------------5---------------------------|

G|------------------------------------------------------------------------------------9---|
D|----------------------------------------------------------------------------------------|
A|----------------------------4---5-------6-------7-------8-------9-------10--10----------|
E|7-----------7---7-------7---------------------------------------------------------------|

1:17

G|--------9-/-11------\---9-------9-------7-----------------------|
D|----7-------------------------------------------9-------7-------|
A|7-----------------------------------------------------------7---|
E|----------------------------------------------------------------|

G|--------9-/-11----------9-------9-------7-----------------------|
D|----7-------------------------------------------9-------7-------|
A|------------------------------------------------------------7---|
E|----------------------------------------------------------------|

G|--------9-/-11------\---9-------9-------7-----------------------|
D|----7-------------------------------------------9-------7-------|
A|7-----------------------------------------------------------7---|
E|----------------------------------------------------------------|

G|--------9-/-11----------9-------|
D|----7---------------------------|
A|7-------------------------------|
E|--------------------------------|

G|--------9-/-11------\---9-------9-------7-----------------------|
D|----7-------------------------------------------9-------7-------|
A|7-----------------------------------------------------------7---|
E|----------------------------------------------------------------|

G|------------9--/-11-------------\----9---------------|
D|------7----------------------------------------------|
A|7----------------------------------------------------|
E|-----------------------------------------------------|

G|------------------------------------------------------------------------------------|
D|-----------------------------------------------------------------------------12/14--|
A|------------------------------------------------------------------------------------|
E|5---------------------------5---------------5---------------5-----------------------|
Suggest correction
Give kudos to tab author, rate the tab!
1 2 3 4 5
comments
print report bad tab
guest
You may want to rate the tab now too:
select rating
Wanna post a correction for this tab? Suggest correction