Oops, an error
Loading. Please wait.

Cada Momento Tab

74 views 1 this week
no commentswrite comment
1 2 3 4 5
3 more votes to show rating
add to favorites
launch autoscroll
font size
0
reset
how to read this tab
guitar tuner
Autoscroll
slow
fast
+/-
esc
set tempo
stop
Help us to improve Ultimate-Guitar.com Take our survey!
×
   Esta rola quiero dedicarla a mi mejor amiga Anita P. , por que es la mwjor persona que 
He conocido en mi vida y la quiero con toda el alma

   D                                                        F#m                    G
3/---------------------------------------------------------------------
2/---------------------------------------------------------------------
1/---2---3--2---3s5--5----2---3--2---3s5h--7--5----5---7---9---10--9-
                                     A
3/---------------------------------------------------------------------
2/---------------------------------------------------------------------
1/----7--5--3------5--7--9--10--9--7--5--7----------------------------------------
     D                                                   F#m
3/---------------------------------------------------------------------
2/---------------------------------------------------------------------
1/---2---3--2---3s5--5----2--3--2-3s5-5-5s7---7-7s9---9-9s11--12-----
                                  D              G                                   A
3/---------------------------------------------------------------------
2/---------------------------------------------------------------------
1/----12-12-12-12---12----10--10---8----8-8-8-8--10--8-8--6---8-------------


       D                     F#m
No es que yo quiera , jugar contigo
   G                        A
Es mi manera , de ver las cosas
D                    F#m
No es que yo quiera , dañar tu amor
         G                   A
Tú no conoces , mis sentimientos
     D                   F#m
Dices que hablo , y nada más
    G                                  A
Es que no quieres , que entre en tu vida
        Bm                 F#m
Es que te quiero , a mi manera
   G                     A
Tan sólo eso , compréndeme
Bm                           F#m
Cada momento , que estoy pensando
  G                  A
Que yo de ti , me enamoré.....


INTRO 

   D                                                        F#m                    G
3/---------------------------------------------------------------------
2/---------------------------------------------------------------------
1/---2---3--2---3s5--5----2---3--2---3s5h--7--5----5---7---9---10--9-
                                     A
3/---------------------------------------------------------------------
2/---------------------------------------------------------------------
1/----7--5--3------5--7--9--10--9--7--5--7----------------------------------------
     D                                                   F#m
3/---------------------------------------------------------------------
2/---------------------------------------------------------------------
1/---2---3--2---3s5--5----2--3--2-3s5-5-5s7---7-7s9---9-9s11--12-----
                                  D              G                                   A
3/---------------------------------------------------------------------
2/---------------------------------------------------------------------
1/----12-12-12-12---12----10--10---8----8-8-8-8--10--8-8--6---8-------------


   D                         F#m
Aquellas calles , que son testigas
      G                    A
De nuestros besos , a escondidas
    D                 F#m
Pregúntale , como te quiero
   G                           A
Estoy seguro , que ellas no mienten

  Bm                           F#m
Cada momento , que estoy pensando
G                  A
Que yo de ti , me enamoré.....

  Bm                 F#m
Es que te quiero , a mi manera
  G                     A
Tan sólo eso , compréndeme
 Bm                           F#m
Cada momento , que estoy pensando
     G                  A
Que yo de ti , me enamoré...
Suggest correction
Give kudos to tab author, rate the tab!
1 2 3 4 5
comments
print report bad tab
guest
You may want to rate the tab now too:
select rating
Wanna post a correction for this tab? Suggest correction