Oops, an error
Loading. Please wait.

Goodnight Moon Tab

8,959 views 21 this week
no commentswrite comment
1 2 3 4 5
excellent!
x 6
add to favorites
launch autoscroll
font size
0
reset
how to read this tab
guitar tuner
Tab Pro tools
  • play this tab
  • loop segment
  • change instrument
  • show fretboard
  • metronome
×
Best way to learn
"Goodnight Moon"
Autoscroll
slow
fast
+/-
esc
set tempo
stop
-------------------------------------------------------------------------------
                          Goodnight Moon - Said The Whale
-------------------------------------------------------------------------------
Tabbed by: Erika Thompson
Email: snow-girl@hotmail.com

Tuning: standard

Intro:                                                                  (let ring)
e|--7----7----9----9---11---11----9----9----7----7----9----9---11---11----12--|
B|----9----9----9----9----9----9----9----9----9----9----9----9----9----9------|
G|--9----9----9----9----9----9----9----9----9----9----9----9----9----9--------|
D|----------------------------------------------------------------------------|
A|----------------------------------------------------------------------------|
E|----------------------------------------------------------------------------|


Verse:
e|--7----7----9----9---11---11----9----9----|
B|----9----9----9----9----9----9----9----9--|
G|--9----9----9----9----9----9----9----9----|
D|------------------------------------------|    x 2
A|------------------------------------------|
E|------------------------------------------|

e|------11-----11-----11-----11-----------|
B |--10-----10-----10-----10--------------|
G|--11-----11-----11-----11---------------|
D|----------------------------------------|   x2
A|----------------------------------------|
E|----------------------------------------|
                                (let ring)
e|--7----7----9----9---11---11----12-|
B|----9----9----9----9----9----9-----|
G|--9----9----9----9----9----9-------|
D|-----------------------------------|
A|-----------------------------------|
E|-----------------------------------|


Play verse twice


Bridge: (I was born...)                                           (let ring)
e|--2----4----5----4-4----2-2----4----5----4----2----4----5----4----2---|
B|--4----4----4----4-4----4-4----4----4----4----4----4----4----4----4---|
G|--4----4----4----4-4----4-4----4----4----4----4----4----4----4----4---|
D|----------------------------------------------------------------------|
A|----------------------------------------------------------------------|
E|----------------------------------------------------------------------|


Interlude:                      (let ring)
e|--7----7----9----9---11---11----12-|
B|----9----9----9----9----9----9-----|
G|--9----9----9----9----9----9-------|
D|-----------------------------------|
A|-----------------------------------|
E|-----------------------------------|

Verse x2


Bridge


Fast part:
e|--7--7--7---9--9--9-9-9-9-9---11-11-11---9--9--9-9-9-9-9---|
B|--9--9--9---9--9--9-9-9-9-9---9--9--9----9--9--9-9-9-9-9---|
G|--9--9--9---9--9--9-9-9-9-9---9--9--9----9--9--9-9-9-9-9---|
D|-----------------------------------------------------------|  x 6
A|-----------------------------------------------------------|
E|-----------------------------------------------------------|

e|--11--11--11---11--11--11-11-11-11-11---|
B|--10--10--10---10--10--10-10-10-10-10---|
G|--11--11--11---11--11--11-11-11-11-11---|
D|----------------------------------------|  x 2
A|----------------------------------------|
E|----------------------------------------|

e|--7--7--7---9--9--9-9-9-9-9---11-11-11---9--9--9-9-9-9-9---|
B|--9--9--9---9--9--9-9-9-9-9---9--9--9----9--9--9-9-9-9-9---|
G|--9--9--9---9--9--9-9-9-9-9---9--9--9----9--9--9-9-9-9-9---|
D|-----------------------------------------------------------|  x 2
A|-----------------------------------------------------------|
E|-----------------------------------------------------------|

e|--11--11--11---11--11--11-11-11-11-11---|
B|--10--10--10---10--10--10-10-10-10-10---|
G|--11--11--11---11--11--11-11-11-11-11---|
D|----------------------------------------|  x 2
A|----------------------------------------|
E|----------------------------------------|


Outro:
e|---7--7--7---9--9--9-9-9-9-9---7--7--7---7--7-7-7-7---|
B|---9--9--9---9--9--9-9-9-9-9---9--9--9---9--9-9-9-9---|
G|---9--9--9---9--9--9-9-9-9-9---9--9--9---9--9-9-9-9---|
D|------------------------------------------------------|
A|------------------------------------------------------|
E|------------------------------------------------------|
comments
print report bad tab
I want to post or [tab]
guest
You may want to rate the tab now too:
select rating
Please do not post tabs as comments. Select "correction" instead!