Oops, an error
Loading. Please wait.

Cruelty Tab

version 1
version 1

Whole song

Interactive

129 views 3 this week
no commentswrite comment
1 2 3 4 5
please rate
add to favorites
launch autoscroll
font size
0
reset
how to read this tab
guitar tuner
Tab Pro tools
  • play this tab
  • loop segment
  • change instrument
  • show fretboard
  • metronome
Autoscroll
slow
fast
+/-
esc
set tempo
stop
Contributor
Difficulty
intermediate
-----------------------------------------------------------------------------
                      Cruelty - Saigon Kick (GUITAR)
                       
-----------------------------------------------------------------------------
Tabbed by: Scotto10

Tuning: Standard

=============================================================================

                                                                         
Guitar - rhythm
 


                                      Q     Q     Q        H.            
-----------|-----------|-----------|-------------------|----------------|
-----------|-----------|-----------|-------------------|----------------|
-----------|-----------|-----------|-------------------|----------------|
-----------|-----------|-----------|--7----11----12----|--14------------|
-----------|-----------|-----------|-------------------|----------------|
-----------|-----------|-----------|--5-----9----10----|--12------------|


   H.               H.              Q     Q     Q        H.            
----------------|----------------|-------------------|----------------|
----------------|----------------|-------------------|----------------|
----------------|----------------|-------------------|----------------|
---L------------|---L------------|--7----11----12----|--14------------|
----------------|----------------|-------------------|----------------|
---L------------|---L------------|--5-----9----10----|--12------------|


   H.               H.              Q     Q     Q     
----------------|----------------|-------------------|
----------------|----------------|-------------------|
----------------|----------------|-------------------|
---L------------|---L------------|--7----11----12----|
----------------|----------------|-------------------|
---L------------|---L------------|--5-----9----10----|


   E    E    E   E    E    E      E    E   E   E   E    E    
------------------------------|-----------------------------|
------------------------------|-----------------------------|
------------------------------|-----------------------------|
--14s--16s--14--12s--14s--12--|--11s--12--11s--9--11s--12s--|
------------------------------|-----------------------------|
--12s--14s--12--10s--12s--10--|---9s--10---9s--7---9s--10s--|


   E  E   E    E    E   E      E    E    Q    Q        H.            
---------------------------|-----------------------|----------------|
---------------------------|-----------------------|----------------|
---------------------------|-----------------------|----------------|
--11--9--11s--12s--11s--9--|--11s--12s--11----9----|--11------------|
---------------------------|-----------------------|----------------|
---9--7---9s--10s---9s--7--|---9s--10s---9----7----|---9------------|


   H.               H.              Q     Q     Q        H.            
----------------|----------------|-------------------|----------------|
----------------|----------------|-------------------|----------------|
----------------|----------------|-------------------|----------------|
---L------------|---L------------|--7----11----12----|--14------------|
----------------|----------------|-------------------|----------------|
---L------------|---L------------|--5-----9----10----|--12------------|


   H.               H.              Q     Q     Q        H.            
----------------|----------------|-------------------|----------------|
----------------|----------------|-------------------|----------------|
----------------|----------------|-------------------|----------------|
---L------------|---L------------|--7----11----12----|--14------------|
----------------|----------------|-------------------|----------------|
---L------------|---L------------|--5-----9----10----|--12------------|


   H.               H.              Q     Q     Q     
----------------|----------------|-------------------|
----------------|----------------|-------------------|
----------------|----------------|-------------------|
---L------------|---L------------|--7----11----12----|
----------------|----------------|-------------------|
---L------------|---L------------|--5-----9----10----|


   E    E    E   E    E    E      E    E   E   E   E    E    
------------------------------|-----------------------------|
------------------------------|-----------------------------|
------------------------------|-----------------------------|
--14s--16s--14--12s--14s--12--|--11s--12--11s--9--11s--12s--|
------------------------------|-----------------------------|
--12s--14s--12--10s--12s--10--|---9s--10---9s--7---9s--10s--|


   E   E   E    E    E   E      E    E    Q    Q        H.            
----------------------------|-----------------------|----------------|
----------------------------|-----------------------|----------------|
----------------------------|-----------------------|----------------|
--11s--9--11s--12s--11s--9--|--11s--12s--11----9----|--11------------|
----------------------------|-----------------------|----------------|
---9s--7---9s--10s---9s--7--|---9s--10s---9----7----|---9------------|


  H.                H.              Q     Q     Q        H.            
----------------|----------------|-------------------|----------------|
----------------|----------------|-------------------|----------------|
----------------|----------------|-------------------|----------------|
--7-------------|---L------------|--7----11----12----|--14------------|
----------------|----------------|-------------------|----------------|
--5~------------|---L------------|--5-----9----10----|--12------------|


   H.               H.              Q     Q     Q        H.            
----------------|----------------|-------------------|----------------|
----------------|----------------|-------------------|----------------|
----------------|----------------|-------------------|----------------|
---L------------|---L------------|--7----11----12----|--14------------|
----------------|----------------|-------------------|----------------|
---L------------|---L------------|--5-----9----10----|--12------------|


   H.               H.              Q     Q     Q     
----------------|----------------|-------------------|
----------------|----------------|-------------------|
----------------|----------------|-------------------|
---L------------|---L------------|--7----11----12----|
----------------|----------------|-------------------|
---L------------|---L------------|--5-----9----10----|


   E    E    E   E    E    E      E    E   E   E   E    E    
------------------------------|-----------------------------|
------------------------------|-----------------------------|
------------------------------|-----------------------------|
--14s--16s--14--12s--14s--12--|--11s--12--11s--9--11s--12s--|
------------------------------|-----------------------------|
--12s--14s--12--10s--12s--10--|---9s--10---9s--7---9s--10s--|


   E   E   E    E    E   E      E    E    Q    Q        H.            
----------------------------|-----------------------|----------------|
----------------------------|-----------------------|----------------|
----------------------------|-----------------------|----------------|
--11s--9--11s--12s--11s--9--|--11s--12s--11----9----|--11------------|
----------------------------|-----------------------|----------------|
---9s--7---9s--10s---9s--7--|---9s--10s---9----7----|---9------------|


  H.                H.              Q     Q     Q        H.            
----------------|----------------|-------------------|----------------|
----------------|----------------|-------------------|----------------|
----------------|----------------|-------------------|----------------|
--7-------------|---L------------|--7----11----12----|--14------------|
----------------|----------------|-------------------|----------------|
--5~------------|---L------------|--5-----9----10----|--12------------|


   H.               H.              Q     Q     Q        H.            
----------------|----------------|-------------------|----------------|
----------------|----------------|-------------------|----------------|
----------------|----------------|-------------------|----------------|
---L------------|---L------------|--7----11----12----|--14------------|
----------------|----------------|-------------------|----------------|
---L------------|---L------------|--5-----9----10----|--12------------|


   H.               H.              Q     Q     Q     
----------------|----------------|-------------------|
----------------|----------------|-------------------|
----------------|----------------|-------------------|
---L------------|---L------------|--7----11----12----|
----------------|----------------|-------------------|
---L------------|---L------------|--5-----9----10----|


   E   E   E   E   E   E      E   E   E  E   E   E      E  E   E   E   E  E   
--------------------------|-------------------------|------------------------|
--------------------------|-------------------------|------------------------|
--------------------------|-------------------------|------------------------|
--14--16--14--12--14--12--|--11--12--11--9--11--12--|--11--9--11--12--11--9--|
--------------------------|-------------------------|------------------------|
--12--14--12--10--12--10--|---9--10---9--7---9--10--|---9--7---9--10---9--7--|


   E   E   Q    Q        H.               H.               H.            
---------------------|----------------|----------------|----------------|
---------------------|----------------|----------------|----------------|
---------------------|----------------|----------------|----------------|
--11--12--11----9----|--11------------|---L------------|---L------------|
---------------------|----------------|----------------|----------------|
---9--10---9----7----|---9------------|---L------------|---L------------|


  Q     Q     Q        E   E   E   E   E   E      E   E   E  E   E   E   
-------------------|--------------------------|-------------------------|
-------------------|--------------------------|-------------------------|
-------------------|--------------------------|-------------------------|
--7----11----12----|--14--16--14--12--14--12--|--11--12--11--9--11--12--|
-------------------|--------------------------|-------------------------|
--5-----9----10----|--12--14--12--10--12--10--|---9--10---9--7---9--10--|


   E  E   E   E   E  E      E   E   Q    Q        H.            
------------------------|---------------------|----------------|
------------------------|---------------------|----------------|
------------------------|---------------------|----------------|
--11--9--11--12--11--9--|--11--12--11----9----|--11------------|
------------------------|---------------------|----------------|
---9--7---9--10---9--7--|---9--10---9----7----|---9------------|


   H.               H.             
----------------|----------------||
----------------|----------------||
----------------|----------------||
---L------------|---L------------||
----------------|----------------||
---L------------|---L------------||




Duration Legend
---------------
W - whole
H - half
Q - quarter
E - 8th
S - 16th
T - 32nd
X - 64th
. - note dotted
|-n-|  - n-tuplets


Tablature Legend
----------------
L - tied note
x - dead note
g - grace note
(n) - ghost note
> - accentuded note
NH - natural harmonic
AH - artificial harmonic
TH - tapped harmonic
SH - semi harmonic
PH - pitch harmonic
h - hammer on
p - pull off
b - bend
br - bendRelease
pb - preBend
pbr - preBendRelease
brb - bendReleaseBend
\n/ - tremolo bar dip
\n - tremolo bar dive
-/n - tremolo bar Release up
/n\ - tremolo bar inverted dip
/n - tremolo bar return
-\n - tremolo bar Release down
S - shift slide
s - legato slide
/ -  slide into from below or out of upwards
\ -  slide into from above or out of downwards
~ - vibrato
W - wide vibrato
tr - trill
TP - tremolo picking
T - tapping
S - slap
P - pop
< - fade in
^ - brush up
v - brush down
comments
We did not receive enough feedback on this tab! Please rate:
print report bad tab
1 2 3 4 5
I want to post or [tab]
guest
You may want to rate the tab now too:
select rating
Please do not post tabs as comments. Select "correction" instead!