Oops, an error
Loading. Please wait.

My Dog Tab

version 1
version 1

Whole song

Interactive

82 views 1 this week
no commentswrite comment
1 2 3 4 5
3 more votes to show rating
add to favorites
launch autoscroll
font size
0
reset
how to read this tab
guitar tuner
Autoscroll
slow
fast
+/-
esc
set tempo
stop
Help us to improve Ultimate-Guitar.com Take our survey!
×
Author
Difficulty
intermediate
-----------------------------------------------------------------------------
                      My Dog - Saigon Kick (GUITAR)
                       
-----------------------------------------------------------------------------
Tabbed by: Scotto10

Tuning: Standard

=============================================================================

Track 1



     H        E  E    Q        E  E  E  S S S S  S S S S S S  
E||-------------------------|--3--3--3-----------------------|
B||-------------------------|--3--3--3----4---4----4---4-4---|
G||--------------5s--15\----|-------------4---4--4-4---4-4---|
D||--------------5s--15\----|--------------------x-----------|
A||--------------5s--15\----|--------------------------------|
E||-------------------------|--------------------------------|


  E  E  E  S S S S E  E  E     E  E  E  S S S S  S S S S S S  
----------------------6--6--|--3--3--3-----------------------|
--6--6--6----4---4----6--6--|--3--3--3----4---4----4---4-4---|
--6--6--6----4---4----------|-------------4---4--4-4---4-4---|
----------------------------|--------------------x-----------|
----------------------------|--------------------------------|
----------------------------|--------------------------------|


  W                    H        Q    E  E     E  E  E  S S S S  S S S S S S  
--------------------|----------------6--6--|--3--3--3-----------------------|
--6/----------------|----------------6--6--|--3--3--3----4---4----4---4-4---|
--6/----------------|----------------------|-------------4---4--4-4---4-4---|
--------------------|----------------------|--------------------x-----------|
--------------------|----------------------|--------------------------------|
--------------------|----------------------|--------------------------------|


  E  E  E  S S S S E  E  E     E  E  E  S S S S  S S S S S S  
----------------------6--6--|--3--3--3-----------------------|
--6--6--6----4---4----6--6--|--3--3--3----4---4----4---4-4---|
--6--6--6----4---4----------|-------------4---4--4-4---4-4---|
----------------------------|--------------------x-----------|
----------------------------|--------------------------------|
----------------------------|--------------------------------|


  E  E  E  S S S S E  E  E     E  E  E  S S S S  S S S S S S  
----------------------6--6--|--3--3--3-----------------------|
--6--6--6----4---4----6--6--|--3--3--3----4---4----4---4-4---|
--6--6--6----4---4----------|-------------4---4--4-4---4-4---|
----------------------------|--------------------x-----------|
----------------------------|--------------------------------|
----------------------------|--------------------------------|


  E  E  E  S S S S E  E  E     E  E  E  S S S S  S S S S S S  
----------------------6--6--|--3--3--3-----------------------|
--6--6--6----4---4----6--6--|--3--3--3----4---4----4---4-4---|
--6--6--6----4---4----------|-------------4---4--4-4---4-4---|
----------------------------|--------------------x-----------|
----------------------------|--------------------------------|
----------------------------|--------------------------------|


  E  E  E  S S S S E  E  E     W                   H        E  E  E  E   
----------------------6--6--|-------------------|-----------------------|
--6--6--6----4---4----6--6--|-------------------|-----------------------|
--6--6--6----4---4----------|-------------------|-----------------------|
----------------------------|--3----------------|--L--------L--7--6--5--|
----------------------------|--3----------------|--L--------L--5--4--3--|
----------------------------|--1----------------|--L--------L-----------|


  E  E  E  S S S S  S S S S S S    E  E  E  S S S S E  E  E   
--3--3--3-----------------------|----------------------6--6--|
--3--3--3----4---4----4---4-4---|--6--6--6----4---4----6--6--|
-------------4---4--4-4---4-4---|--6--6--6----4---4----------|
--------------------x-----------|----------------------------|
--------------------------------|----------------------------|
--------------------------------|----------------------------|


  E  E  E  S S S S  S S S S S S    E  E  E  S S S S E  E  E   
--3--3--3-----------------------|----------------------6--6--|
--3--3--3----4---4----4---4-4---|--6--6--6----4---4----6--6--|
-------------4---4--4-4---4-4---|--6--6--6----4---4----------|
--------------------x-----------|----------------------------|
--------------------------------|----------------------------|
--------------------------------|----------------------------|


  E  E  E  S S S S  S S S S S S    E  E  E  S S S S E  E  E   
--3--3--3-----------------------|----------------------6--6--|
--3--3--3----4---4----4---4-4---|--6--6--6----4---4----6--6--|
-------------4---4--4-4---4-4---|--6--6--6----4---4----------|
--------------------x-----------|----------------------------|
--------------------------------|----------------------------|
--------------------------------|----------------------------|


  E  E  E  S S S S  S S S S S S    E  E  E  S S S S E  E  E   
--3--3--3-----------------------|----------------------6--6--|
--3--3--3----4---4----4---4-4---|--6--6--6----4---4----6--6--|
-------------4---4--4-4---4-4---|--6--6--6----4---4----------|
--------------------x-----------|----------------------------|
--------------------------------|----------------------------|
--------------------------------|----------------------------|


  W                   H        E  E  E  E     Q    H        Q      
-------------------|-----------------------|---------------------||
-------------------|-----------------------|---------------------||
-------------------|-----------------------|---------------------||
--3----------------|--L--------L--7--6--5--|--5------------------||
--3----------------|--L--------L--5--4--3--|--5------------------||
--1----------------|--L--------L-----------|--3------------------||




Duration Legend
---------------
W - whole
H - half
Q - quarter
E - 8th
S - 16th
T - 32nd
X - 64th
. - note dotted
|-n-|  - n-tuplets


Tablature Legend
----------------
L - tied note
x - dead note
g - grace note
(n) - ghost note
> - accentuded note
NH - natural harmonic
AH - artificial harmonic
TH - tapped harmonic
SH - semi harmonic
PH - pitch harmonic
h - hammer on
p - pull off
b - bend
br - bendRelease
pb - preBend
pbr - preBendRelease
brb - bendReleaseBend
\n/ - tremolo bar dip
\n - tremolo bar dive
-/n - tremolo bar Release up
/n\ - tremolo bar inverted dip
/n - tremolo bar return
-\n - tremolo bar Release down
S - shift slide
s - legato slide
/ -  slide into from below or out of upwards
\ -  slide into from above or out of downwards
~ - vibrato
W - wide vibrato
tr - trill
TP - tremolo picking
T - tapping
S - slap
P - pop
< - fade in
^ - brush up
v - brush down
Suggest correction
Give kudos to tab author, rate the tab!
1 2 3 4 5
comments
print report bad tab
guest
You may want to rate the tab now too:
select rating
Wanna post a correction for this tab? Suggest correction