Oops, an error
Loading. Please wait.

Las Horas Bass Tab

22 views 1 this week
no commentswrite comment
1 2 3 4 5
3 more votes to show rating
add to favorites
launch autoscroll
font size
0
reset
guitar tuner
Autoscroll
slow
fast
+/-
esc
set tempo
stop
Help us to improve Ultimate-Guitar.com Take our survey!
×
Saiko
Las Horas

TEMASOOOOO DE SAIKO ASI QUE AQUI SE LES VIENE EL TAB JUEGUEEEE:

intro :
--------------
--------------
--------------
---2^--2^----- ( lo retienes en todo el intro luego entras con esto)


----------------------------------------------------
----------------2-4--------2-4-------2-4------2-4---
---9-9-9-9  444-----4--222----4--000----4--------4--
------------------------------------------222-------

----------------------------------------------------
-------4-6-------2-4--------------------------------
---444----4--222----4---0-2/7---0-2/7---------------
-----------------------2-------2--------------------

verso : desiertos, rios, maaaaaaaar......

----------------------------------------------------
------4-6-----4-6-----2-4-----2-4-------------------
---4-4---4---4-6---2-2---2---2-4--------------------
------------4---------------2----------------------- (x2)

viene el solo del teclado viene lo mismo que el verso
solo que vienen unos arreglos super faciles asi que
demas que lo sacan sigamos:

verso 2 : despierto sin lograaar....

----------------------------------------------------
------4-6-----4-6-----2-4-----2-4-------------------
---4-4---4---4-6---2-2---2---2-4--------------------
------------4---------------2----------------------- (x2)

CORO : las horas, los dias .....

----------------------------------------------------
----------------2-4--------2-4-------2-4------2-4---
---9-9-9-9  444-----4--222----4--000----4--------4--
------------------------------------------222-------

----------------------------------------------------
-------4-6-------2-4--------------------------------
---444----4--222----4---0-2/7---0-2/7---------------
-----------------------2-------2--------------------

sigue todo lo mismo mete solo algunos arreglos pero super
simples asi que para que seguir, les deje la escencia del
tema asi que pruebenlo con toda seguridad que les va a
sonar super bien

en el final donde dice : los momentos en que me faltaste es
asi igual que el comienzo de la cancion :

--------------
--------------
--------------
---2^--2^-----

ME DESPIDO CORDIALMENTE DE USTEDES ARRIBA SAIKO LO MEJOR
QUE HAY DENISE DIME SI ME SALUDASTE EN EL CONCIERTO PORFA
jajaja saludos a todos los que pudieron tocar este tab y
saludos para mi mamy xula que la quiero muxo
Suggest correction
Give kudos to tab author, rate the tab!
1 2 3 4 5
comments
print report bad tab
guest
You may want to rate the tab now too:
select rating
Wanna post a correction for this tab? Suggest correction