Oops, an error
Loading. Please wait.

Lo Que Mereces Bass Tab

49 views 6 this week
no commentswrite comment
1 2 3 4 5
3 more votes to show rating
add to favorites
launch autoscroll
font size
0
reset
guitar tuner
Autoscroll
slow
fast
+/-
esc
set tempo
stop
Help us to improve Ultimate-Guitar.com Take our survey!
×
saiko
lo que mereces

(generiz@

Aqui generiz se hace presente con otro tab para bajo,
tema demasiado bueno, aqui les tengo el tab para que lo
saquen, cautela les pido, tiene artos detalles pero aqui
les tengo como siempre la base y algunos detalles los
cuales les mensionaba, asi que JUEGUEEEEEE....

intro :
----------------------------------------------
----3--------3-----------3--------3-----------
---5-0---2--5-0-33333---5-0---2--5-0-3333-----
------3-3------------------3-3----------------

verso : Tus trenzas azabaches barro como traje...

----------------------------------------------
----------------------------------------------
----------------------------------------------
---3-3-3-3-3-3-3-3--8-8-8-8-8-8-8-8-----------

----------------------------------------------
----------------------------------------------
----------------------------------------------
---3-3-3-3-3-3-3-3--8-8-8-8-8-8-8-8/15-14-15--

----------------------------------------------
----------------------------------------------
----------------------------------------------
---15-15-15-15-15-15-15-15--8-8-8-8-8/15-14-15

----------------------------------------------
----------------------------------------------
----------------------------------------------
---15-15-15-15-15-15-15-15--8-8-8-8-8-8-8-8-8- ( se repite intro
                                                 y verso luego
coro : si puedo poneeer ......                   coro)
----------------------------------------------
----------------------------------------------
---5-5-5-5-5-5-5-5/7/5-------7-7-7-7-5-3-5----(no puse bien los
----------------------5-5-5-5----------------- toques de cuerda
                                               pero se deduce)
----------------------------------------------
----------------------------------------------
---5-5-5-5-5-5-5-5/7/5-------10-9-7-7-7-7-----
----------------------5-5-5-5-----------------

viene nuevamente el intro con el verso y luego el
coro que cambia a estos intervalos se los voy a enseñar

----------------------------------------------
----------------------------------------------
---5-5-5-5-5-5-5-5/7/5-------7-7-7-7-5-3-5----
----------------------5-5-5-5-----------------

----------------------------------------------
----------------------------------------------
---5-5-5-5-5/7/9/10/12/14---------10-9-7-7-7-7
--------------------------5-5-5-5-------------
intervalo : viste caeeeer ......

----------------------------------------------
----------------------------------------------
------------------3-3-3-3-3-3/10-10-10-10-10--
---5-5-5-5-5-5-5-5----------------------------

----------------------------------------------
----------------------------------------------
-----------------------3-3-3-3/10-10-10-10-10-
---5-5-5-5-5-5--7-9-7-5-----------------------

despues de eso viene el coro toodo el tiempo
hay unos intervalos metidos pero son faciles
de sacar asi que para que mas o no?. bueno eso
seria todo, saludos especiales para mi amiga
Tania y lix que me hicieron descubrir la musica
de saiko, GRACIAS LAS QUIERO ADIOZ
Suggest correction
Give kudos to tab author, rate the tab!
1 2 3 4 5
comments
print report bad tab
guest
You may want to rate the tab now too:
select rating
Wanna post a correction for this tab? Suggest correction