Oops, an error
Loading. Please wait.

Lo Que Mereces Tab

28 views 1 this week
no commentswrite comment
1 2 3 4 5
3 more votes to show rating
add to favorites
launch autoscroll
font size
0
reset
how to read this tab
guitar tuner
×
Best way to learn
"Lo Que Mereces"
Autoscroll
slow
fast
+/-
esc
set tempo
stop
Ahora,cachen:

Intro:

      SOL           DO
e-----------------------------------
b---7------7------7------7----------
g-7---4~-7---4~-7---5~-7---5~--(x2)-
d-----------------------------------
a-----------------------------------
e-----------------------------------

A)
 SOL              DO
Tus trenzas azabaches barro como traje
 SOL              DO
de juegos bajo un sause nacen sueños grandes
 SOL              DO
y no hay más que ver la tierra y tomar su siembra
 SOL              DO
quieres cruzar corre lejos fuera de la frontera

Intro

A)
Camino frente al alba y suero por la espalda
no ha sido nada fácil sola agarrar batalla
y sin buscar amor deprisa da su semilla
si ves girar la vida te ofrece una sonrisa

B)/Riff 1
 RE                      LAm            MIm
Si puedo poner el mundo a tus pieeees...ay,ay
 RE                      LAm            MIm
Podrías tener lo que mereces

A)
Con dos vidas pérdidas saltas las orillas
racelas tu tesoro y te sientes bendecida
y que hizo mal? traicionan tu amor y adivina
no queda más que recoger toda tu ceniza

B)...

 Riff 2
luz detrás del son lazos de miel tu viga de espinas
si puedo volver el tiempo al revez y darte mi suerte eeeee...

 Riff 3...

 Riff 4
ooohhh...si puedo poner el mundo a tus pieees...Ay,ay,ay,ay...
Podrías tener lo que mereces oohhh...

lo que mereces...
lo que mereces...
lo que mereces y ay,ay,ay...

Fin.

Pero calmao aca están los Riff:

 Riff 1(parte B)
e------------------------------------------------------------
b------------------------------------------------------------
g------------------( Se repite hasta que termina la parte B)-
d-5/7-7-5-5-4-0----------------------------------------------
a---------------3--------------------------------------------
e------------------------------------------------------------

 Riff 2
e----------------------------------------------------------------
b----------------------------------------------------------------
g-----------------------------------------------------------(x2)-
d-4-5-4-5-4-5-5--4-5-4-5-4-5-5--4-5-4-5-4-5-5-4---4-5---4-5------
a-----------------------------------------------5-----5----------
e----------------------------------------------------------------

 Riff 3
e---------------------------------------------
b---------------------------------------------
g---------------------------------------------
d---------2-------(Varias veces ahi ven...xD)-
a-5-3-5-3-----3-5-----------------------------
e-----------5---------------------------------

 Riff 4
e----------------------------------------------------------------------------------
b----------------------------------------------------------------------------------
g----------------------------------------------------------------------------------
d-4-5-4-5-4-5/12-12~-(2 veces y luego...)-4-5-4-5-4-5/9-9~-5-4-2-0-2-5-4-(N veces)-
a----------------------------------------------------------------------------------
e----------------------------------------------------------------------------------

The End.


Nota:No estoy 100% seguro de la letra pero lo demás ta weno si.
Suggest correction
Give kudos to tab author, rate the tab!
1 2 3 4 5
comments
print report bad tab
guest
You may want to rate the tab now too:
select rating
Wanna post a correction for this tab? Suggest correction