Oops, an error
Loading. Please wait.

Blow Me Wide Open tab

4,479 views 9 this week
6 commentsread comments
1 2 3 4 5
x 5
add to favorites
×
Save as Personal and add changes to this tab that will be seen only by you. Learn more ›
×
You can save this tab as Personal to edit and correct it or add notes. All changes will be seen only by you. Learn more »
launch autoscroll
font size
0
reset
how to read this tab
guitar tuner
edit
Autoscroll
slow
fast
+/-
esc
set tempo
stop
[Intro part 1/Verse]
e|---------------------------------------------------------------------------|
B|---------------------------------------------------------------------------|
G|---------------------------------------------------------------------------|
D|---------------------------------------------------------------------------|
A|-----/5----------------------------/5--------------------------------------|
E|--0-----3--5--5--5--5--3-----0--0------3--5----5---3-----------------------|

e|---------------------------------------------------------------------------|
B|---------------------------------------------------------------------------|
G|---------------------------------------------------------------------------|
D|----------------------------5-3--3--5--3--0-----0-0---0--0-0---------------|
A|-----/5---------------------5-3--3--5--3--0-----0-0---0--0-0---------------|
E|--0-----3--5--5--5--5--3----5-3--3--5--3--0-----0-0---0--0-0---------------|

[Ending of the intro]
e|---------------------------------------------------------------------------|
B|---------------------------------------------------------------------------|
G|---------------------------------------------------------------------------|
D|---------------------------------------------------------------------------|
A|-----/5----------------------------/5--------------------------------------|
E|--0-----3--5--5--5--5--3-----0--0------3--5----5---3-----------------------|

e|---------------------------------------------------------------------------|
B|---------------------------------------------------------------------------|
G|---------------------------------------------------------------------------|
D|----------------------------5-3--3--5--3--0~~~~~~~~~-----------------------|
A|-----/5---------------------5-3--3--5--3--0~~~~~~~~~-----------------------|
E|--0-----3--5--5--5--5--3----5-3--3--5--3--0~~~~~~~~~-----------------------|

[Pre-Chorus]
   Forgettable                  And So Replaceable
e|---------------------------------------------------------------------------|
B|---------------------------------------------------------------------------|
G|---------------------------------------------------------------------------|
D|--3-5-5-3----7-----8---------10--------------------------------------------|
A|--3-5-5-3----7-----8---------10--------------------------------------------|
E|--3-5-5-3----7-----8---------10--------------------------------------------|

[Chorus]
e|---------------------------------------------------------------------------|
B|---------------------------------------------------------------------------|
G|--7------------------------------------------------------------------------|
D|--7-------8------3-------7------8------------------------------------------|
A|--5-------8------3-------7------8------------------------------------------|
E|-(0)------8------3-------7------8------------------------------------------|

e|---------------------------------------------------------------------------|
B|---------------------------------------------------------------------------|
G|--7------------------------------------------------------------------------|
D|--7-------8------3-------7-------------------------------------------------|
A|--5-------8------3-------7-------------------------------------------------|
E|-(0)------8------3-------7------7--5--3---5--3--2--------------------------|

[Bridge]
e|---------------------------------------------------------------------------|
B|---------------------------------------------------------------------------|
G|--7------------------------------------------------------------------------|
D|--7---7---10----5----8---3---7----8----------------------------------------|
A|--5---7---10----5----8---3---7----8----------------------------------------|
E|------7---10----5----8---3---7----8----------------------------------------|

e|---------------------------------------------------------------------------|
B|---------------------------------------------------------------------------|
G|--7------------------------------------------------------------------------|
D|--7----8---3---7~~~~-----x-8---x-10----------------------------------------|
A|--5----8---3---7~~~~-----x-8---x-10----------------------------------------|
E|-------8---3---7~~~~-----x-8---x-10----------------------------------------|



************************************

| /    Slide up
| ~    Vibrato
| (n)  Ghost note
| x    Dead note

************************************

            
            
Suggest correction
Creating personal tab
Creating personal tab
You can edit any tab online and save it as your Personal.

You can edit, replace or remove any tab part or add personal notes – all changes will be seen only by you.

Personal tabs can be accessed anytime from any device, even offline.
Learn more »
comments
print report bad tab
6 comments total. Showing first comments.
0 reply
PotatoMan54 20 Aug 06, 2015 10:14 PM

Nice tab!

0 reply
PotatoMan54 20 Aug 06, 2015 10:15 PM, edited on August 7 2015, 02:17 am

I like it the way it is but to me it sounds like:
|---------------------------------------------------------------------------|
|---------------------------------------------------------------------------|
|---------------------------------------------------------------------------|
|---------------------------------------------------------------------------|
|---------------------------------------------------------------------------|
|--0--/12--3--5--5--5--5--3-----0--0---/12---3--5----5---3------------------|

0 reply
Hajiki 84 May 06, 2016 10:43 PM

It sounds similar but I hear the notes clashing with the recording. Fun to play though and I'm sure you're very close just probably in Drop G# and moved around the neck a bit. I believe it's played on one string based on live vids, and it helps the groove.

guest
You may want to rate the tab now too:
select rating
Wanna post a correction for this tab? Suggest correction