Oops, an error
Loading. Please wait.

Dying Slowly tab

version 1
version 1

Whole song

Interactive

3,181 views 6 this week
3 commentsread comments
1 2 3 4 5
x 3
add to favorites
×
Save as Personal and add changes to this tab that will be seen only by you. Learn more ›
×
You can save this tab as Personal to edit and correct it or add notes. All changes will be seen only by you. Learn more »
launch autoscroll
font size
0
reset
how to read this tab
guitar tuner
edit
Autoscroll
slow
fast
+/-
esc
set tempo
stop
Update (8/6/2016): I recently found out that Mike Mushock uses a kind of Drop tuning which involves dropping 
both the lower two strings. There are some changes to accommodate for the tuning.
Tuning (low to high):
Ab Db Ab Db Gb Bb (Eb) or
G# C# G# C# F# A# (D#)

INTRO PART 1:
Eb|------------------------------------------------------------------------------------------|
Bb|------------------------------------------------------------------------------------------|
Gb|--------0-----------0-----------0-----------0-----------0-------------0----------0--------|
Db|-----4-----4-----4-----4-----4-----4-----4-----4-----4-----4------4-----4-----4-----4-----|
Ab|----------------------------------------------------------------3---3---------------------|
Db|--2-----------2-----------0-----------0------------------------------------0-----------0--|
Ab|--------------------------------------------------3-----------3---------------------------|

INTRO PART 2:
Eb|------------------------------------------|
Bb|------------------------------------------|
Gb|------------------------------------------|
Db|--2-2-4h5p4--0-0-4h5p4------4h5--0-0-5p4--|
Ab|--2-2--------0-0--------3-3------0-0------|
Db|--2-2--------0-0--------5-5------0-0------|
Ab|------------------------3-3---------------|

Eb|-------------------------------------------|
Bb|-------------------------------------------|
Gb|-------------------------------------------|
Db|--2-2-4h5p4--0-0-4h5p4--5-5-7h9--7-7-10p9--|
Ab|--2-2--------0-0--------5-5------7-7-------|
Db|--2-2--------0-0--------5-5------7-7-------|
Ab|-------------------------------------------|

VERSE:
Eb|---------------------------------------------------------------------------------------------------|
Bb|---------------------------------------------------------------------------------------------------|
Gb|--------0-----------0-----------0-----------0-----------0-------------0----------0-----------0-----|
Db|-----4-----4-----4-----4-----4-----4-----4-----4-----4-----4------4-----4-----4-----4-----4-----4--|
Ab|----------------------------------------------------------------3---3------------------------------|
Db|--2-----------2-----------0-----------0------------------------------------0-----------0-----------|
Ab|--------------------------------------------------3-----------3------------------------------------|

PRECHORUS:
Eb|--------------------------------------------------------------------------------------------|
Bb|--------------------------------------------------------------------------------------------|
Gb|--------0-----------0-----------0-----------0-----------0-----------0-----------------------|
Db|-----4-----4-----4-----4-----4-----4-----4-----4-----4-----4-----4-----4--0-0-0-0-0-0-0-0---|
Ab|--2-----------2-----------3-----------3-----------2-----------2-----------0-0-0-0-0-0-0-0---|
Db|--------------------------------------------------------------------------0-0-0-0-0-0-0-0---|
Ab|--------------------------------------------------------------------------------------------|
                                                                             . . . . . . . . 
CHORUS:
Eb|---------------------------------|
Bb|---------------------------------|
Gb|---------------------------------|
Db|--2----0--4h5p4-----4h5--0--5p4--|
Ab|--2----0---------3-------0-------|
Db|--2----0---------5-------0-------|
Ab|-----------------3---------------|

Eb|----------------------------------|
Bb|----------------------------------|
Gb|----------------------------------|
Db|--2----4--4h5p4--5--7h9--7--10p9--|
Ab|--2----4---------5-------7--------|
Db|--2----4---------5-------7--------|
Ab|----------------------------------|

Eb|----------------------|
Bb|----------------------|
Gb|----------------------|
Db|-----4h5--0--5p4--2---|
Ab|--3-------0-------2---|
Db|--5-------0-------2---|
Ab|--3-------------------|

This is how the second chorus ends
Eb|-------------------------------------|
Bb|-------------------------------------|
Gb|-------------------------------------|
Db|-----4h5--0--5p4--2-2-2-2-2-2-2-2-2--|
Ab|--3-------0-------2-2-2-2-2-2-2-2-2--|
Db|--5-------0-------2-2-2-2-2-2-2-2-2--|
Ab|--3----------------------------------|
                     . . . . . . . . . slowly lift the palm mute

BRIDGE:
Eb|-------------------------------------------------------------------|
Bb|-------------------------------------------------------------------|
Gb|----------------------------------5-5-5-5-5-5-5-5------------------|
Db|--2-2-2-2-2-2-2-2-0-0-0-0-0-0-0-0-5-5-5-5-5-5-5-5-0-0-0-0-0-0-0-0--| x2
Ab|--2-2-2-2-2-2-2-2-0-0-0-0-0-0-0-0-3-3-3-3-3-3-3-3-0-0-0-0-0-0-0-0--|
Db|--2-2-2-2-2-2-2-2-0-0-0-0-0-0-0-0-----------------0-0-0-0-0-0-0-0--|
Ab|-------------------------------------------------------------------|

Eb|-------------------|
Bb|-------------------|
Gb|-------------------|
Db|--0-0-0-0-0-0-0-0--|
Ab|--0-0-0-0-0-0-0-0--|
Db|--0-0-0-0-0-0-0-0--|
Ab|-------------------|

Eb|------------------------------------------------------------------------------------------|
Bb|------------------------------------------------------------------------------------------|
Gb|--------0-----------0-----------0-----------0-----------0-------------0----------0--------|
Db|-----4-----4-----4-----4-----4-----4-----4-----4-----4-----4------4-----4-----4-----4-----|
Ab|----------------------------------------------------------------3---3---------------------|
Db|--2-----------2-----------0-----------0------------------------------------0-----------0--|
Ab|--------------------------------------------------3-----------3---------------------------|

OUTRO: 
Eb|-----------------------------------|
Bb|-----------------------------------|
Gb|-----------------------------------|
Db|--2-2-2-2-0-0-0-0---------0-0-0-0--| x2
Ab|--2-2-2-2-0-0-0-0-3-3-3-3-0-0-0-0--|
Db|--2-2-2-2-0-0-0-0-5-5-5-5-0-0-0-0--|
Ab|------------------3-3-3-3----------|

Eb|--------------------|
Bb|--------------------|
Gb|--------------------|
Db|------4h5--0-0-5p4--| x3
Ab|--3-3------0-0------|
Db|--5-5------0-0------|
Ab|--3-3---------------|

Eb|---------|
Bb|---------|
Gb|---------|
Db|----2----|
Ab|----2----|
Eb|----2----|
Ab|---------|
Last chord of the song
Suggest correction
Creating personal tab
Creating personal tab
You can edit any tab online and save it as your Personal.

You can edit, replace or remove any tab part or add personal notes – all changes will be seen only by you.

Personal tabs can be accessed anytime from any device, even offline.
Learn more »
Give kudos to tab author, rate the tab!
1 2 3 4 5
comments
print report bad tab
3 comments total.
0 reply
aradtke59 10 Apr 28, 2017 04:35 PM

is there any way this can be played on a 6 string?

0 reply
aradtke59 10 Apr 28, 2017 04:46 PM

👍

guest
You may want to rate the tab now too:
select rating
Wanna post a correction for this tab? Suggest correction