Oops, an error
Loading. Please wait.

Daydream Wetdream Nightmare Bass Tab

16 views 1 this week
no commentswrite comment
1 2 3 4 5
3 more votes to show rating
add to favorites
launch autoscroll
font size
0
reset
guitar tuner
Autoscroll
slow
fast
+/-
esc
set tempo
stop
Help us to improve Ultimate-Guitar.com Take our survey!
×
Author
Difficulty
intermediate
About this tab version
Based on the album recording. Was this info helpful? Yes No
-------------------------------------------------------------------------------
                 Daydream / Wetdream / Nightmare - Saint Motel
-------------------------------------------------------------------------------
Tabbed by: Carlos C (Caboolean)
E-mail: carlos@cerrillostech.com

Tuning: E Standard

[Daydream / Intro @ 0:12]

G|----------------------------------|--------------------------------------|
D|----------------5--------5--------|----------------7--7-----7------3--4--|
A|----------------------------------|----------------------7---------------|
E|-3---3--3---------------------4---|-5---5--5-----------------------------|

G|----------------------------------|----------------9-------------|
D|----------------5--------5--------|---------------------7--------|
A|----------------------------------|--------------------------7---|
E|-3---3--3---------------------4---|-5---5--5---------------------|

[Verse]

G|----------------------------------------|---------------------------------|
D|----------------------------------------|-3---3---------------------------|
A|----------------------------------------|-------------3-------------------|
E|-3----3------1--3-----3-----1--3--1-----|---------------------0---1---2---| x2

[Chorus]

G|----------------------------------|--------------------------------------|
D|----------------5--------5--------|----------------7--7-----7------3--4--|
A|----------------------------------|----------------------7---------------|
E|-3---3--3---------------------4---|-5---5--5-----------------------------|

G|----------------------------------|----------------9-------------|
D|----------------5--------5--------|---------------------7--------|
A|----------------------------------|--------------------------7---|
E|-3---3--3---------------------4---|-5---5--5---------------------|

[Verse]

G|----------------------------------------|---------------------------------|
D|----------------------------------------|-3---3---------------------------|
A|----------------------------------------|-------------3-------------------|
E|-3----3------1--3-----3-----1--3--1-----|---------------------0---1---2---| x2


[Chorus]

G|----------------------------------|--------------------------------------| -|
D|----------------5--------5--------|----------------7--7-----7------3--4--|  |
A|----------------------------------|----------------------7---------------|  |
E|-3---3--3---------------------4---|-5---5--5-----------------------------|  |
                                                                              |
G|----------------------------------|----------------9-------------|          |
D|----------------5--------5--------|---------------------7--------|          |
A|----------------------------------|--------------------------7---|          |
E|-3---3--3---------------------4---|-5---5--5---------------------|         -| x3


G|----------------------------------------|---------------------------------|
D|----------------------------------------|-3---3---------------------------|
A|----------------------------------------|-------------3-------------------|
E|-3----3------1--3-----3-----1--3--1-----|---------------------0---1---2---| x2


[Wetdream / Interlude @ 1:41]

G|--------|--------|-4------|-6------|--------|--------|-4------|--------|
D|--------|--------|--------|--------|--------|--------|--------|--------|
A|-2------|-4------|--------|--------|-2------|-4------|--------|-4------|
E|--------|--------|--------|--------|--------|--------|--------|--------|

[Verse]

G|---------------------------------------------|-------------------------------------6---5---|
D|-------------------------------------4---5---|---------------------------------------------|
A|-2-----2--2--2-----2--2--2-----2--2----------|-4-----4--4--4-----4--4--4-----4--4----------|
E|---------------------------------------------|---------------------------------------------| x4

[Refrain]

G|---------------------------------------------|---------------------------------------------|
D|-------------------------------------4---6---|---------------------------------------------|
A|-2-----2-----1-----1-------------------------|-4-----4-----2-----2-----1-----1-------------|
E|-------------------------4-----4-------------|-------------------------------------2---4---| x2

[Verse]

G|---------------------------------------------|-------------------------------------6---5---|
D|-------------------------------------4---5---|---------------------------------------------|
A|-2-----2--2--2-----2--2--2-----2--2----------|-4-----4--4--4-----4--4--4-----4--4----------|
E|---------------------------------------------|---------------------------------------------| x4

[Refrain]

G|---------------------------------------------|---------------------------------------------|
D|-------------------------------------4---6---|---------------------------------------------|
A|-2-----2-----1-----1-------------------------|-4-----4-----2-----2-----1-----1-------------|
E|-------------------------4-----4-------------|-------------------------------------2---4---| x4

[Transition @ 3:02]

G|---------------------------------|---------------------------------|
D|---------------------------------|---------------------------------|
A|-2---2---2---2---2---2---2---2---|-4---4---4---4---4---4---4---4---|
E|---------------------------------|---------------------------------|


G|---------------------------------|------------------------------|
D|---------------------------------|------------------------------|
A|---------------------------------|-------------------------2----|
E|-4---4---4---4---4---4---4---4---|-2---2---2---2---2---2--------|

G|--------|
D|--------|
A|-4------|
E|--------|

[Nightmare - Outro @ 3:28]

G|------------------|--------|------------------|--------|
D|-11-----11-8--8---|-9------|-8------11-8--8---|-9------|
A|------------------|--------|------------------|--------|
E|------------------|--------|------------------|--------| x3


G|--------10-8--8---|--------|------------------|--------|
D|-11---------------|-9------|-8------11-8--8---|-9------|
A|------------------|--------|------------------|--------|
E|------------------|--------|------------------|--------|

G|------------------|--------|------------------|--------|
D|-11-----11-8--8---|-9------|-8------11-8--8---|-9------|
A|------------------|--------|------------------|--------|
E|------------------|--------|------------------|--------| x2

G|--------10-8--8---|--------|------------------|--------|
D|-11---------------|-9------|-8------11-8--8---|-9------|
A|------------------|--------|------------------|--------|
E|------------------|--------|------------------|--------|

G|--------|
D|-11-----|
A|--------|
E|--------|


Suggest correction
Give kudos to tab author, rate the tab!
1 2 3 4 5
comments
print report bad tab
guest
You may want to rate the tab now too:
select rating
Wanna post a correction for this tab? Suggest correction