Oops, an error
Loading. Please wait.

Destroyer Bass Tab

40 views 1 this week
no commentswrite comment
1 2 3 4 5
3 more votes to show rating
add to favorites
launch autoscroll
font size
0
reset
guitar tuner
Autoscroll
slow
fast
+/-
esc
set tempo
stop
Help us to improve Ultimate-Guitar.com Take our survey!
×
Author
Difficulty
novice
About this tab version
Based on the album recording. Was this info helpful? Yes No
-------------------------------------------------------------------------------
                            Destroyer - Saint Motel
-------------------------------------------------------------------------------
Tabbed by: Carlos C (Caboolean)
E-mail: carlos@cerrillostech.com

Tuning: E Standard

[Intro 0:07]

G|---------------------------------|------------------------------|
D|---------------------------------|-5-------5---5---7------------|
A|-7-------7-------7-------7---\3--|-------------------------5----|
E|---------------------------------|------------------------------|

G|---------------------------------|------------------------------|
D|---------------------------------|-5-------5-------7------------|
A|-7-------7-------7-------7-------|-------------5-----------5----|
E|---------------------------------|------------------------------|


[Verse 0:15]

G|--------|---------------------|--------|--------------7---------|
D|--------|----------------7----|--------|-7----7------------9----|
A|-7------|-4-----4---7---------|-3------|----------7-------------|
E|--------|---------------------|--------|------------------------| x2


[Pre-Chorus 0:29]

G|--------|-------------|--------|-------7---------|
D|--------|-------------|--------|------------9----|
A|-7------|--------5----|--------|-----------------|
E|--------|-3-----------|-5------|-7---------------|

G|--------|---------------------|--------|--------|
D|--------|----------------7----|--------|--------|
A|-7------|-4-----4--/7---------|-3------|--------|
E|--------|---------------------|--------|--------|


[Chorus 0:44]

G|---------------------------------|------------------------------|  -|
D|---------------------------------|-5-------5---5---7------------|   |
A|-7-------7-------7-------7---\3--|-------------------------5----|   |
E|---------------------------------|------------------------------|   |
                                                                      |
G|---------------------------------|------------------------------|   |
D|---------------------------------|-5-------5-------7------------|   |
A|-7-------7-------7-------7-------|-------------5-----------5----|   |
E|---------------------------------|------------------------------|  -| x2

G|--------|
D|--------|
A|--------|
E|--------|


[Verse 1:00]

G|--------|---------------------|--------|--------------7---------|
D|--------|----------------7----|--------|-7----7------------9----|
A|-7------|-4-----4---7---------|-3------|----------7-------------|
E|--------|---------------------|--------|------------------------| x2


[Pre-Chorus 1:15]

G|--------|-------------|--------|-------7---------|
D|--------|-------------|--------|------------9----|
A|-7------|--------5----|--------|-----------------|
E|--------|-3-----------|-5------|-7---------------|

G|--------|---------------------|--------|--------|
D|--------|----------------7----|--------|--------|
A|-7------|-4-----4--/7---------|-3------|--------|
E|--------|---------------------|--------|--------|


[Chorus 1:30]

G|---------------------------------|------------------------------|  -|
D|---------------------------------|-5-------5---5---7------------|   |
A|-7-------7-------7-------7---\3--|-------------------------5----|   |
E|---------------------------------|------------------------------|   |
                                                                      |
G|---------------------------------|------------------------------|   |
D|---------------------------------|-5-------5-------7------------|   |
A|-7-------7-------7-------7-------|-------------5-----------5----|   |
E|---------------------------------|------------------------------|  -| x4


[Break 2:00 - 2:22]


[Chorus 2:22]

G|---------------------------------|------------------------------|  -|
D|---------------------------------|-5-------5---5---7------------|   |
A|-7-------7-------7-------7---\3--|-------------------------5----|   |
E|---------------------------------|------------------------------|   |
                                                                      |
G|---------------------------------|------------------------------|   |
D|---------------------------------|-5-------5-------7------------|   |
A|-7-------7-------7-------7-------|-------------5-----------5----|   |
E|---------------------------------|------------------------------|  -| x4


[Outro 2:51]

G|---------------------------------|---------------------------------|
D|---------------------------------|-5---5---5---5---7---7-----------|
A|-7---7---7---7---7---7---7---7---|-------------------------5---5---|
E|---------------------------------|---------------------------------|

G|---------------------------------|---------------------------------|
D|---------------------------------|-5---5---5---5---7---7---7---7---|
A|-7---7---7---7---7---7---7---7---|---------------------------------|
E|---------------------------------|---------------------------------|

G|---------------------------------|---------------------------------| -|
D|---------------------------------|-5---5---5---5---7---7-----------|  |
A|-7---7---7---7---7---7---7---7---|-------------------------5---5---|  |
E|---------------------------------|---------------------------------| -| x2


************************************
| /   Slide up
| \   Slide down
************************************
Suggest correction
Give kudos to tab author, rate the tab!
1 2 3 4 5
comments
print report bad tab
guest
You may want to rate the tab now too:
select rating
Wanna post a correction for this tab? Suggest correction