Oops, an error
Loading. Please wait.

Local Long Distance Relationship La2Ny Bass Tab

46 views 6 this week
no commentswrite comment
1 2 3 4 5
1 last vote to show rating
add to favorites
launch autoscroll
font size
0
reset
guitar tuner
Autoscroll
slow
fast
+/-
esc
set tempo
stop
Help us to improve Ultimate-Guitar.com Take our survey!
×
---------------------------------------------------------------------------------------------
               Local Long Distance Relationship(LA2NY)- Saint Motel (Bass Tab)
---------------------------------------------------------------------------------------------

Tabbed by:Mark Donohue
Email:mwdonohue97@gmail.com

Tuning:Standard

_____________________________________________________________________________________________


[Intro] (0:10-0:25)

G|-----------------------------------|-----------------------------------|
D|-----------------------------------|-----------------------------------| (Play x2)
A|--6-6-6-6-6-6-6-6\3-3-3-3-3-3-3-3--|-----------------------------------|
E|-----------------------------------|--3-3-3-3-3-3-3-3/6-6-6-6-6-6-6-6--|


[Verse 1] (0:25-0:39)

G|--------------------|--------------------|
D|--------------------|--------------------|
A|--6--------3--------|--------------------|
E|--------------------|--3--------6--------|

G|--------------------|--------------------|
D|--------------------|--5-----------------|
A|--6--------3--------|--------------------|
E|--------------------|-----------6--------|


[Pre-Chorus] (0:47-0:55)

G|--------------------|--------------------|
D|-----------8--------|--------------------|
A|--6-----------------|--8--------6--------|
E|--------------------|--------------------|


[Chorus] (0:56-1:11)

G|-----------------------------------|-----------------------------------|
D|-----------------------------------|-----------------------------------| (Play x2)
A|--6-6-6-6-6-6-6-6\3-3-3-3-3-3-3-3--|-----------------------------------|
E|-----------------------------------|--3-3-3-3-3-3-3-3/6-6-6-6-6-6-6-6--|


[Verse 2] (1:19-1:26)

G|-----------------------------------|-----------------------------------|
D|-----------------------------------|-/5-5-5-5-5-5-5-5------------------|
A|--/6-6-6-6-6-6-6-6\3-3-3-3-3-3-3-3-|-----------------------------------|
E|-3---------------------------------|------------------6-6-6-6-6-6-6-6--|


[Pre-Chorus] (1:34-1:42)

G|--------------------|--------------------|
D|-----------8--------|--------------------|
A|--6-----------------|--8--------6--------|
E|--------------------|--------------------|


[Chorus] (1:44-2:13)

G|-----------------------------------|-----------------------------------|
D|-----------------------------------|-----------------------------------| (Play x4)
A|---6-6-6-6-6-6-6-6\3-3-3-3-3-3-3-3-|-----------------------------------|
E|-3/--------------------------------|--3-3-3-3-3-3-3-3/6-6-6-6-6-6-6-6--|


[Bridge] (2:44-2:59)

G|-----------------------------------|-----------------------------------|
D|-----------------------------------|--5-5-5-5-5-5-5-5------------------| (Play x2)
A|--6-6-6-6-6-6-6-6\3-3-3-3-3-3-3-3/-|-----------------------------------|
E|-----------------------------------|------------------6-6-6-6-6-6-6-6--|


[Outro] (2:59-3:14)

G|-----------------------------------|-----------------------------------|
D|-----------------------------------|-----------------------------------| 
A|--6-6-6-6-6-6-6-6\3-3-3-3-3-3-3-3--|-----------------------------------|
E|-----------------------------------|--3-3-3-3-3-3-3-3/6-6-6-6-6-6-6-6--|

G|-----------------------------------|-----------------------------------|
D|-----------------------------------|--5-5-5-5-5-5-5-5------------------| 
A|--6-6-6-6-6-6-6-6\3-3-3-3-3-3-3-3/-|-----------------------------------|
E|-----------------------------------|------------------6-6-6-6-6-6-6-6--|


************************************

| /   Slide up
| \   Slide down

************************************

Suggest correction
Give kudos to tab author, rate the tab!
1 2 3 4 5
comments
print report bad tab
guest
You may want to rate the tab now too:
select rating
Wanna post a correction for this tab? Suggest correction