Oops, an error
Loading. Please wait.

Move bass

334 views 3 this week
2 commentsread comments
1 2 3 4 5
2 more votes to show rating
add to favorites
×
Save as Personal and add changes to this tab that will be seen only by you. Learn more ›
×
You can save this tab as Personal to edit and correct it or add notes. All changes will be seen only by you. Learn more »
launch autoscroll
font size
0
reset
guitar tuner
edit
Autoscroll
slow
fast
+/-
esc
set tempo
stop
Author
Difficulty
About this tab version
Full bass tab. Simple song, only trick is the bass chords at the very end. Enjoy and rate or comment :). Was this info helpful? Yes No
[Intro]

G|-----------------|----------------|----------------|-----------------|
D|-----------------|----------------|----------------|-----------------|
A|-----------------|----------------|----------------|-7---------------|
E|-9---------------|-9--------------|-2--------------|---------7-------|

G|-----------------|----------------|----------------|-----------------|
D|-----------------|----------------|----------------|-----------------|
A|-----------------|----------------|----------------|-----------------|
E|-9---------------|-9--------------|-2--------------|-----------------|


[Verse]

G|-----------------|----------------|----------------|-----------------|
D|-----------------|----------------|----------------|-----------------|
A|-----------------|----------------|-7-----------11-|-9---9---9---9\--| play 2x
E|-9-------------9-|-9------------9-|----------------|-----------------|



[Prechorus]

   Sounds like guitar with tremelo effect, but here's the notes
G|-----------------|----------------|----------------|-----------------|
D|-----------------|----------------|----------------|-----------------|
A|-12--------------|-9--------------|-12-------------|-9---------------|
E|-----------------|----------------|----------------|-----------------|



[Chorus]
   same as intro
G|-----------------|----------------|----------------|-----------------|
D|-----------------|----------------|----------------|-----------------|
A|-----------------|----------------|----------------|-7---------------| play 2x
E|-9---------------|-9--------------|-2--------------|---------7-------|



[Verse 2]

G|-----------------|----------------|----------------|-----------------|
D|-----------------|----------------|----------------|-----------------|
A|-----------------|----------------|-7-----------11-|-9---9---9---9\--| play 2x
E|-9-------------9-|-9------------9-|----------------|-----------------|



[Prechorus 2]

   Sounds like guitar with tremelo effect, but here's the notes
G|-----------------|----------------|----------------|-----------------|
D|-----------------|----------------|----------------|-----------------|
A|-12--------------|-9--------------|-12-------------|-9---------------|
E|-----------------|----------------|----------------|-----------------|



[Chorus 2]
   same as intro
G|-----------------|----------------|----------------|-----------------|
D|-----------------|----------------|----------------|-----------------|
A|-----------------|----------------|----------------|-7---------------| play 2x
E|-9---------------|-9--------------|-2--------------|---------7-------|



[Bridge]
  "Head, shoulders, knees, toes" - no bass



[Outro Chorus]

G|-----------------|----------------|----------------|-----------------|
D|-----------------|----------------|----------------|-----------------|
A|-----------------|----------------|----------------|-7---------------| play 2x
E|-9---------------|-9--------------|-2--------------|---------7-------| no lyrics

G|-----------------|----------------|----------------|-----------------|
D|-----------------|----------------|----------------|-----------------|
A|-----------------|----------------|----------------|-7---------------| play 2x
E|-9---------------|-9--------------|-2--------------|---------7-------| with lyrics


[Ending]
G|-----------------|-----------------|
D|-----------------|-----------------|
A|-7---------------|-7-------2-------|
E|---------7-------|-7-------2-------|



************************************

| x   Dead note
| g   Grace note
| (n) Ghost note
| h   Hammer-on
| p   Pull-off
| r   Release
| >   Accented note
| t   Tapping
| b   Bend
| br  Bend release
| pb  Pre-bend
| pbr Pre-bend release
| /   Slide up
| \   Slide down
| ~   Vibrato
| s   Slap
| P   Pop
| PM  Palm mute
| TR  Trill
| N   Tremolo

************************************

            
            
Suggest correction
Creating personal tab
Creating personal tab
You can edit any tab online and save it as your Personal.

You can edit, replace or remove any tab part or add personal notes – all changes will be seen only by you.

Personal tabs can be accessed anytime from any device, even offline.
Learn more »
Give kudos to tab author, rate the tab!
1 2 3 4 5
comments
print report bad tab
2 comments total.
0 reply
windowwatch 17 Mar 11, 2017 01:41 PM

the tabs are actually one note too sharp, that's all that needs to be changed :). a website called songterr often does that, if you took it from them.

guest
You may want to rate the tab now too:
select rating
Wanna post a correction for this tab? Suggest correction