Oops, an error
Loading. Please wait.

Hunter Chords

636 views 1 this week
no commentswrite comment
1 2 3 4 5
please rate
add to favorites
launch autoscroll
font size
0
reset
transpose
0
reset
simplify chords
display chords
guitar tuner
Autoscroll
slow
fast
+/-
esc
set tempo
stop
Help us to improve Ultimate-Guitar.com Take our survey!
×
Author
Tuning Half-step Down

F#m in intro and verses is 044200, play 244222 in chorus
Dsus2/Db x00220 or possibly just A x02220 sometimes

Intro: F#m E A
       F#m E D/A

eb|------------------------------------|
bb|------------------------------------|
gb|-----6br---------6------6-----9-7-6-|
db|---7-----6-9---7------7---9-6-------|
ab|-9-----------9------9---------------|
eb|------------------------------------|

        F#m            E                Dsus2/Db
This is traditional misfiring at its finest
        F#m            E                Dsus2/Db
There’s nobody left to fight for our side and
  F#m         E      Dsus2/Db
All my enemies are at my back door
  F#m         E       Dsus2/Db
All my friends are at my back door

A E F#m E
riff
B|-10-10-10-14-14-14-12-12-12-10-10-10
continued..
B|-9-9-9-14-14-14-12-12-12-10-10-10

B|-7-7-7-12-12-12-9-9-9-10-10-10-7-7-7

F#m           E               Bm
I welcomed them in with open arms
       F#m                        E                          Dsus2/Db
so they drew their guns from their belts and walked right in
       F#m               E               Dsus2/Db
They laid me by the fire to watch me dry my eyes out
 F#m                         E                      Dsus2/Db 
Because we’re just soldiers looking for a war to fight

chorus
eb|------------------------------------------------------------------|
bb|------------------------------------------------------------------|
gb|-----11------11------11------11-----------------------------------|
db|9-11----9-11----9-11----9-11------11-11-11-11-7-7-9b-7-6--7-7-7-6-|
ab|------------------------------------------------------------------|
eb|------------------------------------------------------------------|
A              E                   Bm                   F#m
I saw a hunter crawling out in the distance, he’s tired, his legs are tied
       C#m       G               F#m
He’s dehydrated, drowning in the well
A                 E
Gasoline fields in my backyard
        Bm                      F#m
They’re cavernous, bridgeless and unbound
    C#m               G                F#m
Their ruinous remains will mark all our graves

interlude riff again

 F#m                E                    B#m
I don’t have much to tell the travelers down the road
              F#m           E                 Dsus2/Db         
cause they just stopped by looking for a place to rest
    F#m                   E
And they’ll disappear when morning comes
Dsus2/Db
Shadows on the landscape block the sun
F#m                        E                  Dsus2/Db
cause this isn’t where they wanted to be found

(The rest is just the same stuff)
Suggest correction
Give kudos to tab author, rate the tab!
1 2 3 4 5
comments
print report bad tab
guest
You may want to rate the tab now too:
select rating
Please do not post tabs as comments. Select "correction" instead!