Oops, an error
Loading. Please wait.

Beasts tab

367 views 3 this week
no commentswrite comment
1 2 3 4 5
2 more votes to show rating
add to favorites
×
Save as Personal and add changes to this tab that will be seen only by you. Learn more ›
×
You can save this tab as Personal to edit and correct it or add notes. All changes will be seen only by you. Learn more »
launch autoscroll
font size
0
reset
how to read this tab
guitar tuner
edit
Autoscroll
slow
fast
+/-
esc
set tempo
stop
-------------------------------------------------------------------------------
                              Beasts - Saintseneca
-------------------------------------------------------------------------------
Tabbed by: NicholasFrey
E-mail: nickfrey95@gmail.com

Tuning: EADGBe
Capo: V


[Intro]

e|------------------------------------------------------------------------------------------------|
B|------------------------------------------------------------------------------------------------|
G|------------------------------------------------------------------------------------------------|
D|-------------7----10----7-----------------------------------------------------------------------|
A|------10---------------------10----7-----7-----------7-----5-----0-----------3-----0-----0-----0|
E|8--8-----8-----8-----8----8-----8-----8-----0--5--5-----5-----5-----0--1--1-----1-----1-----0---|

e|------------------------------------------------------------------------------------------------|
B|------------------------------------------------------------------------------------------------|
G|------------------------------------------------------------------------------------------------|
D|-------------7----10----7---------------------------------------------------------------2-----0-|
A|------10----------------------10----7-----7-----------7-----5---0-----------3-----0-------------|
E|8--8-----8-----8-----8-----8-----8-----8-----0--5--5-----5----5----0--1--1-----1-----1-----1----|

e|---------------------------------------------------------|
B|---------------------------------------------------------|
G|---------------------------------------------------------|
D|---------------------------------------------------------|
A|----3-----0---------0--------0---------0-----0-----0-----|
E|-1-----1-----1---1-----1--1-----1---1-----1-----1-----0--|


[Verse 1]

e||--------------------------------------------------------------------------------------------||
B||--------------------------------------------------------------------------------------------||
G||--------------------------------------------------------------------------------------------||
D||------------7-----10----7-------------------------------------------------------------------||6x
A||------10----------------------10----7-----7-----------7----5----0----------3-----0-----0----||
E||8--8-----8-----8-----8-----8-----8-----8-----0--5--5-----5---5-----0--1--1----1-----1-----0-||


[Bridge]

e||------------------------------------------------||
B||------------------------------------------------||
G||------------------------------------------------||
D||2--2--2--2--2--2--2--2--3--3--3--3--3--3--3--3--|| 2x
A||2--2--2--2--2--2--2--2--3--3--3--3--3--3--3--3--||
E||0--0--0--0--0--0--0--0--1--1--1--1--1--1--1--1--||

e|---------------------------|
B|---------------------------|
G|---------------------------|
D|3--3--3--3--3--3--3--3--3--|
A|3--3--3--3--3--3--3--3--3--|
E|1--1--1--1--1--1--1--1--1--|


[Bridge]

e|------------------------------------------------------------------------------------------------|
B|------------------------------------------------------------------------------------------------|
G|------------------------------------------------------------------------------------------------|
D|------------------------------------------------------------------------------------------------|
A|7--7--7--7--7--7--7--7--10-10-7--7--10-10-7--7--7--7--7--7--7--7--7--7--10-10-7--7--10-10-7--7--|
E|8--8--8--8--8--8--8--8--0--0--0--0--0--0--0--0--5--5--5--5--5--5--5--5--0--0--0--0--0--0--0--0--|

e|------------------------------------------------------------------------------------------------|
B|------------------------------------------------------------------------------------------------|
G|------------------------------------------------------------------------------------------------|
D|------------------------------------------------------------------------------------------------|
A|7--7--7--7--7--7--7--7--10-10-7--7--10-10-7--7--7--7--5--5--7--7--10-10-10-10-10-10-10-10-10-10-|
E|8--8--8--8--8--8--8--8--0--0--0--0--0--0--0--0--5--5--5--5--5--5--0--0--0--0--0--0--0--0--0--0--|

e|------------------------------------------------------------------------------------------------|
B|------------------------------------------------------------------------------------------------|
G|------------------------------------------------------------------------------------------------|
D|------------------------------------------------------------------------------------------------|
A|7--7--7--7--7--7--7--7--10-10-7--7--10-10-7--7--7--7--7--7--7--7--7--7--10-10-7--7--10-10-7--7--|
E|8--8--8--8--8--8--8--8--0--0--0--0--0--0--0--0--5--5--5--5--5--5--5--5--0--0--0--0--0--0--0--0--|

e|------------------------------------------------------------------------------------------------|
B|------------------------------------------------------------------------------------------------|
G|------------------------------------------------------------------------------------------------|
D|------------------------------------------------------------------------------------------------|
A|7--7--7--7--7--7--7--7--10-10-7--7--10-10-7--7--7--7--5--5--7--7--10-10-7--7--7--7--7--7--7--7--|
E|8--8--8--8--8--8--8--8--0--0--0--0--0--0--0--0--5--5--5--5--5--5--0--0--0--0--0--0--0--0--0--0--|

e|------------------------------------------------------------------------------------------------|
B|------------------------------------------------------------------------------------------------|
G|------------------------------------------------------------------------------------------------|
D|------------------------------------------------------------------------------------------------|
A|7--7--7--7--7--7--7--7--10-10-7--7--10-10-7--7--7--7--7--7--7--7--7--7--10-10-7--7--10-10-7--7--|
E|8--8--8--8--8--8--8--8--0--0--0--0--0--0--0--0--5--5--5--5--5--5--5--5--0--0--0--0--0--0--0--0--|

e|------------------------------------------------------------------------------------------------|
B|------------------------------------------------------------------------------------------------|
G|------------------------------------------------------------------------------------------------|
D|------------------------------------------------------------------------------------------------|
A|7--7--7--7--7--7--7--7--10-10-7--7--10-10-7--7--7--7--5--5--7--7--10-10-10-10-10-10-10-10-10-10-|
E|8--8--8--8--8--8--8--8--0--0--0--0--0--0--0--0--5--5--5--5--5--5--0--0--0--0--0--0--0--0--0--0--|


[Verse 2]

e||------------------------------------------------||
B||------------------------------------------------||
G||------------------------------------------------||
D||------------------------------------------------|| 7x
A||7--7--7--7--0--0--0--0--10-10-10-10-3--3--0--0--||
E||8--8--8--8--8--8--8--8--0--0--0--0--0--0--1--1--||

e|------------------------------------|
B|------------------------------------|
G|------------------------------------|
D|------------------------------------|
A|7--7--7--7--0--0--0--0--10-10-10-10-|
E|8--8--8--8--8--8--8--8--0--0--0--0--|


[Verse 3]

e||------------------------||
B||------------------------||
G||------------------------||
D||3--3--3--3--3--3--3--3--|| 4x
A||3--3--3--3--3--3--3--3--||
E||1--1--1--1--1--1--1--1--||

e|------------------------|
B|------------------------|
G|------------------------|
D|0--0--5--5--5--5--5--5--|
A|7--7--5--5--5--5--5--5--|
E|3--3--3--3--3--3--3--3--|

e||------------------------||
B||------------------------||
G||------------------------||
D||5--5--5--5--5--5--5--5--|| 3x
A||5--5--5--5--5--5--5--5--||
E||3--3--3--3--3--3--3--3--||


[Verse 4]

e||------------------------||
B||------------------------||
G||------------------------||
D||3--3--3--3--3--3--3--3--|| 4x
A||3--3--3--3--3--3--3--3--||
E||1--1--1--1--1--1--1--1--||

e|------------------------|
B|------------------------|
G|------------------------|
D|0--0--5--5--5--5--5--5--|
A|7--7--5--5--5--5--5--5--|
E|3--3--3--3--3--3--3--3--|

e||------------------------||
B||------------------------||
G||------------------------||
D||5--5--5--5--5--5--5--5--|| 3x
A||5--5--5--5--5--5--5--5--||
E||3--3--3--3--3--3--3--3--||


[Verse 5]

e||--------------------------------------------------------------------------------------------||
B||--------------------------------------------------------------------------------------------||
G||--------------------------------------------------------------------------------------------||
D||------------7-----10----7-------------------------------------------------------------------||3x
A||------10----------------------10----7-----7-----------7-----5-----0-----------3---0---0-----||
E||8--8-----8-----8-----8-----8-----8-----8-----0--5--5-----5-----5-----0--1--1----1---1----0--||


[Outro]

e|------------------------------------------------------------------------------------------------|
B|------------------------------------------------------------------------------------------------|
G|-----------------------------------------------------------------------------------------------0|
D|------------7-----10----7---------------------------------------------------2---0---------0----2|
A|------10----------------------10----7-----7----------7-----5-----0-------------------3----------|
E|8--8-----8-----8-----8-----8-----8-----8----0--5--5-----5-----5-----0--1--1---1----1----1---1---|

            
            
Suggest correction
Creating personal tab
Creating personal tab
You can edit any tab online and save it as your Personal.

You can edit, replace or remove any tab part or add personal notes – all changes will be seen only by you.

Personal tabs can be accessed anytime from any device, even offline.
Learn more »
Give kudos to tab author, rate the tab!
1 2 3 4 5
comments
print report bad tab
guest
You may want to rate the tab now too:
select rating
Wanna post a correction for this tab? Suggest correction