Oops, an error
Loading. Please wait.

How Many Blankets Are In The World Tab

364 views 9 this week
no commentswrite comment
1 2 3 4 5
x 3
add to favorites
launch autoscroll
font size
0
reset
how to read this tab
guitar tuner
×
Best way to learn
"How Many Blankets Are In The World"
Autoscroll
slow
fast
+/-
esc
set tempo
stop
Author
Difficulty
Capo
  follow
intermediate
1st fret
About this tab version
This song is originally played on ukulele but it sounds all the same on guitar so here is a tab for both uke and guitar. Don't forget to capo on the first fret. Was this info helpful? Yes No
[Intro]
e|-----0-------0-------5-8-5-------|
B|-1-------1-------5-8-------8-5\1-|
G|---------------------------------|
D|-3-3-3---3-3-3-------------------|
A|---------------------------------|
E|---------------------------------|

e|-----0-------0-------0-----|
B|-1-------1---------------0-|
G|-------------------0-------|
D|-3-3-3---3-3-3---2-----2---|
A|---------------------------|
E|---------------------------|

e|-----0-------0-------5-8-5-------|
B|-1-------1-------5-8-------8-5\1-|
G|---------------------------------|
D|-3-3-3---3-3-3-------------------|
A|---------------------------------|
E|---------------------------------|

e|-----0-------0-----------0---------|
B|-1-------1-------------0---0-------|
G|---------------------0-------0-----|
D|-3-3-3---3-3-3---0h2h3---------2-0-|
A|-----------------------------------|
E|-----------------------------------|

[Verse]
e|-----0-------0-------5-8-5-------------0-------0-------0-----|
B|-1-------1-------5-8-------8-5\1---1-------1---------------0-|
G|-----------------------------------------------------0-------| x3
D|-3-3-3---3-3-3---------------------3-3-3---3-3-3---2-----2---|
A|-------------------------------------------------------------|
E|-------------------------------------------------------------|

e|-----0-------0---|
B|-------1-------0-|
G|---2-------0-----| x6
D|-3-------2-------|
A|-----------------|
E|-----------------|

e|----0-----0------0-|
B|------0-----0------|
G|--------0----------|
D|-2-------------2---|
A|-------------------|
E|-------------------|

[Chorus]
e|-----------------------------------------------------------------|
B|-----5-------5-------5-----------------------------------3/6-6-5-|
G|-5-5---5---5---5---5---5-4-4---------2-------2-------2-----------| x7
D|-----------------------------5---3-3---3---3---3---3---3---------|
A|-----------------------------------------------------------------|
E|-----------------------------------------------------------------|

[Verse 2]
e|-----0-------0-------5-8-5-------------0-------0-----------0---------|
B|-1-------1-------5-8-------8-5\1---1-------1-------------0---0-------|
G|-------------------------------------------------------0-------0-----|
D|-3-3-3---3-3-3---------------------3-3-3---3-3-3---0h2h3---------2-0-|
A|---------------------------------------------------------------------|
E|---------------------------------------------------------------------|

e|-----0-------0-------5-8-5-------------0-------0-------0-----|
B|-1-------1-------5-8-------8-5\1---1-------1---------------0-|
G|-----------------------------------------------------0-------| x3
D|-3-3-3---3-3-3---------------------3-3-3---3-3-3---2-----2---|
A|-------------------------------------------------------------|
E|-------------------------------------------------------------|

e|-----0-------0---|
B|-------1-------0-|
G|---2-------0-----| x6
D|-3-------2-------|
A|-----------------|
E|-----------------|

e|----0-----0------0-|
B|------0-----0------|
G|--------0----------|
D|-2-------------2---|
A|-------------------|
E|-------------------|

[Chorus 2]
e|-----------------------------------------------------------------|
B|-----5-------5-------5-----------------------------------3/6-6-5-|
G|-5-5---5---5---5---5---5-4-4---------2-------2-------2-----------| x7
D|-----------------------------5---3-3---3---3---3---3---3---------|
A|-----------------------------------------------------------------|
E|-----------------------------------------------------------------|

[Outro]
e|-----0-------0-------5-8-5-------------0-------0-------0-----|
B|-1-------1-------5-8-------8-5\1---1-------1---------------0-|
G|-----------------------------------------------------0-------|
D|-3-3-3---3-3-3---------------------3-3-3---3-3-3---2-----2---|
A|-------------------------------------------------------------|
E|-------------------------------------------------------------|


************************************

| /  Slide up
| h  Hammer-on
| \  Slide down

************************************
Suggest correction
Give kudos to tab author, rate the tab!
1 2 3 4 5
comments
print report bad tab
guest
You may want to rate the tab now too:
select rating
Wanna post a correction for this tab? Suggest correction