Oops, an error
Loading. Please wait.

Har Zulm chords

version 2
version 2

Whole song

1,351 views 6 this week
1 commentread comment
1 2 3 4 5
3 more votes to show rating
add to favorites
×
Save as Personal and add changes to this tab that will be seen only by you. Learn more ›
×
You can save this tab as Personal to edit and correct it or add notes. All changes will be seen only by you. Learn more »
launch autoscroll
font size
0
reset
transpose
0
reset
display chords
guitar tuner
edit
Autoscroll
slow
fast
+/-
esc
set tempo
stop
Strumming
There is no strumming pattern for this song yet. and get +5 IQ
Guitar lesson for this song on Youtube:
https://www.youtube.com/watch?v=dKynT6jTLpg

Chords:
A(x02220)
E(022100)
F# with last 2 strings open(244100)
A  Major with last 2 open(577400)
B  major with last 2 open(799800)


[Intro]
   
e|----0--0--0----0|--0--0--0----0|--0--0--0----0--0--0--0--0----------------|
B|---0--0--0----0-|-0--0--0----0-|-0--0--0----0--0--0--0--0-----------------|
G|----------------|--------------|------------------------------------------|
D|--2--4--6--6/7--|2--4--6--6/7--|2--4--6--6/7--7--6--4--2------------------|
A|----------------|--------------|------------------------------------------|
E|----------------|--------------|------------------------------------------|


[Verse]

A                                 E
Sahil pay kharay ho tumhain kya gham , chalay jana
A                                 E
Sahil pay kharay ho tumhain kya gham , chalay jana
E         A             F#        A
Main doob raha hoon , abhi duba to naheen hoon

E         A             F#        A
Main doob raha hoon , abhi duba to naheen hoon
F#        A major    F#       B major        E
Aye wada faramosh , main tujhsa to naheen hoon


[Chorus]

E         A             F#              E
Har Zulm tera yaad hai , bhula to naheen hoon
E          A            F#              E
Har Zulm tera yaad hai , bhula to naheen hoon
F#        A major      F#     B major       E
Aye wada faramoosh , main tujhsa to naheen hoon


[Solo riff]
   
e|--0--0--0--0--0--0--0--0--0--0--0--0--0-------------------------------------|
B|--0--0--0--0--0--0--0--0--0--0--0--0--0-------------------------------------|
G|--1--1--1--2--2--2--4--4--4--6--4--2--1-------------------------------------| x4
D|--2--2--2--4--4--4--6--6--6--7--6--4--2-------------------------------------|
A|--2--2--0--4--4--4--6--6--6--7--6--4--2-------------------------------------|
E|--0--0--0--0--0--0--0--0--0--0--0--0--0-------------------------------------|



[Verse]

A                              E
Chup chaap sahi maslehatan , waqt kay hathoon
A                              E
Chup chaap sahi maslehatan , waqt kay hathoon
E            A        F#       E
Majboor sahi, waqt se hara to naheen hoon
E            A        F#       E
Majboor sahi, waqt se hara to naheen hoon
F#        A major    F#    B major      E
Ae wada faramoosh , main tujhsa to naheen hoon


[Chorus]

E         A             F#              E
Har Zulm tera yaad hai , bhula to naheen hoon
E          A            F#              E
Har Zulm tera yaad hai , bhula to naheen hoon
F#        A major      F#     B major       E
Aye wada faramoosh , main tujhsa to naheen hoon


[Solo riff]
   
e|--0--0--0--0--0--0--0--0--0--0--0--0--0-------------------------------------|
B|--0--0--0--0--0--0--0--0--0--0--0--0--0-------------------------------------|
G|--1--1--1--2--2--2--4--4--4--6--4--2--1-------------------------------------| x4
D|--2--2--2--4--4--4--6--6--6--7--6--4--2-------------------------------------|
A|--2--2--0--4--4--4--6--6--6--7--6--4--2-------------------------------------|
E|--0--0--0--0--0--0--0--0--0--0--0--0--0-------------------------------------|


[Verse]

A                            E
Muztar kyon mujhay dekhta rehta hai zamana
E            A            F#       E
Deewana sahi, un ka tamasha toh naheen hoon
E            A            F#        E
Deewana sahi, un ka tamasha toh naheen hoon
F#        A major       Bmajor          E
Aye wada faramoosh , main tujhsa to naheen hoon


[Chorus]

E         A             F#              E
Har Zulm tera yaad hai , bhula to naheen hoon
E          A            F#              E
Har Zulm tera yaad hai , bhula to naheen hoon
F#        A major      F#     B major       E
Aye wada faramoosh , main tujhsa to naheen hoon



[Outro]

E    A    F#    E
Har zulm...
  
e|--0--0--0--0--0--0--0--0--0--0--0--0--0-------------------------------------|
B|--0--0--0--0--0--0--0--0--0--0--0--0--0-------------------------------------|
G|--1--1--1--2--2--2--4--4--4--6--4--2--1-------------------------------------| x4
D|--2--2--2--4--4--4--6--6--6--7--6--4--2-------------------------------------|
A|--2--2--0--4--4--4--6--6--6--7--6--4--2-------------------------------------|
E|--0--0--0--0--0--0--0--0--0--0--0--0--0-------------------------------------|

Har zulm...
Har zulm...


************************************

| /  Slide up

************************************

            
            
Suggest correction
Creating personal tab
Creating personal tab
You can edit any tab online and save it as your Personal.

You can edit, replace or remove any tab part or add personal notes – all changes will be seen only by you.

Personal tabs can be accessed anytime from any device, even offline.
Learn more »
Give kudos to tab author, rate the tab!
1 2 3 4 5
comments
print report bad tab
1 comment total.
0 reply
inshaonline2000 326 Apr 29, 2016 03:16 AM

I corrected this. Check out the other version

guest
Wanna post a correction for this tab? Suggest correction