Oops, an error
Loading. Please wait.

Palma Sola Tab

16 views 1 this week
no commentswrite comment
1 2 3 4 5
3 more votes to show rating
add to favorites
launch autoscroll
font size
0
reset
how to read this tab
guitar tuner
×
Best way to learn
"Palma Sola"
Autoscroll
slow
fast
+/-
esc
set tempo
stop
Esto es un cover de sal y mileto.

Intro:
                                  Am  G     F Em
e|------------------------|-----------------------|
B|------------------------|-----------------------|
G|------------------------|-----------------------|
D|------------------------|-----------------------|
A|------------------------|---3-2-0---------------|
E|-0-3-4-5---3---0-0-1--0-|-0---------3-0--1--0---|

          Am         G         F     Em
e|------------^---------^---------^------|
B|---------1--|------0--|------1--|--0---|
G|---------2--|------0--|------2--|--0---|
D|---------2--|------0--|------3--|--2---|
A|-------0----|---------|---------|------|
E|-0-3-4------x----3----x--0-1----x--0---|


G                          F Em   Am   G   F Em Am
La palma que está en patio,       nació sola
G                           F Em   Am   G   F Em
Creció sin que yo la viera,       nació sola


Dm             C      Am         E
Bajo la luna y el sol, vive sola
C                E       Am         C
Con su largo cuerpo fino, palma sola
Dm             C         Am         E
Sola en el patio sellado, siempre sola
C              E         Am        G F Em Am G F Em Am
Guardián del atardecer, sueña sola.


La palma sola soñando,palma sola
Que va libre por el viento,libre y sola

Suelta de raíz su tierra, suelta y soga
Cazadora de las nubes, palma sola
Sola en el patio sellado, siempre sola
Guardián del atardecer, sueña sola

Am      G   F Em   Am        G   F   Em
Palma sola,       siempre sola,
Am        G  F  Em   Am    G    F   Em  Am     G
libre y sola,       sueña sola,         palma sola.


(lf_lion@
Suggest correction
Give kudos to tab author, rate the tab!
1 2 3 4 5
comments
print report bad tab
guest
You may want to rate the tab now too:
select rating
Wanna post a correction for this tab? Suggest correction