Oops, an error
Loading. Please wait.

Eyes To Match A Soul Tab

302 views 1 this week
no commentswrite comment
1 2 3 4 5
worth learning
x 1
add to favorites
launch autoscroll
font size
0
reset
how to read this tab
guitar tuner
Tab Pro tools
  • play this tab
  • loop segment
  • change instrument
  • show fretboard
  • metronome
Autoscroll
slow
fast
+/-
esc
set tempo
stop
Contributor
Difficulty
intermediate
Salem - Eyes to Match a Soul

This is my first tab, so bare with me..
This is a really good song, and pretty easy i think
Im not sure about the chorus having F#5 all the time, but i couldnt find anything else..


Intro:
E|------------------------|------------------------|
B|------------------------|------------------------|
G|-7---6------------------|-7---6------------------|
D|---------4------5---0-4-|---------4------5---7-4-|
A|-5---4------------------|-5---4------------------|
E|---------2------3-----2-|---------2------3---5-2-|



Solo: (1st guitar does the solo, the 2nd does the power chords):
   A5      F#5  B5                        A5             F#g        B5
E|-10--9-------------------------------------------------10--9------7h9p7~~-|
B|--------7-----7h8p7~~---7h8p7-10-9-7-5------------8--7--------------------|
G|----------------------------------------/7-6-4-6--------------------------|
D|--------------------------------------------------------------------------|
A|--------------------------------------------------------------------------|
E|--------------------------------------------------------------------------|



Then:
  A5            F#5           B5
E|-------------|-------------|-------------|
B|-------------|-------------|-------------|
G|2------------|-------------|4------------|   \  let
D|2------------|4------------|4------------|   /  ring
A|0------------|4------------|2------------|
E|-------------|2------------|-------------|



Verse:
  A5 F#5 B5 (With PM, you figure it out P: )
G:       4
D:7  4   4
A:7  4   2
E:5  2
[the 2nd guitar does some AH.. cant find them though.. sorry..]


Bridge: Before the chorus 1 guitar does this riff:
E|---------------|
B|---------------|
G|---------------|
D|---------------|
A|-----9-10-9----|
E|-3-5-----------|
pm . .


Chorus:
F#5
I try to find a pair of eyes
F#5
I try to find a pair of eyes
F#5             A5     G5
Eyes to match a soul

(on second chorus, end with E5)



Song order:

Intro
Solo
Verse 
Chorus
Verse
Half of the intro
Solo
Verse 
Chorus


hope you enjoy this...
comments, hate mail, and all of this: slayersyd@gmail.com
comments
We did not receive enough feedback on this tab! Please rate:
print report bad tab
1 2 3 4 5
I want to post or [tab]
guest
You may want to rate the tab now too:
select rating
Please do not post tabs as comments. Select "correction" instead!