Oops, an error
Loading. Please wait.

Flames Tab

version 2
version 2

Whole song

Interactive

79 views 1 this week
no commentswrite comment
1 2 3 4 5
3 more votes to show rating
add to favorites
launch autoscroll
font size
0
reset
how to read this tab
guitar tuner
Autoscroll
slow
fast
+/-
esc
set tempo
stop
Help us to improve Ultimate-Guitar.com Take our survey!
×
It's My first |---- TAB ----|

Hod ZOHAR !
I Hope that  it's not worng in the last part But I've done the best that I can .. Great 
! Have fun !!!! :D


E|-----------------------------------|
B|-----------------------------------|
G|--------------------1h2-1h2p1------|   X3
D|----2----3----2-2h3-----------3----|
A|-----------------------------------|
E|-0----0-----0----------------------|

E|-------------------------------------------------------------|
B|-------------------------------------------------------------|
G|---------------------------------------------1h2-1h2p1-------|
D|----2----3-----2-------------2----3----2-2h3-----------3-----|
A|---------------0--6--3---------------------------------------|
E|-0----0-----0-----4--1-----0----0----0-----------------------|

                              |--------  P.M  --------||
E|--------------------------|E|-----------------------||
B|--------------------------|B|-----------------------||
G|--------------------------|G|-----------------------||   X4
D|----2----3-----2----------|D|-----------------------||
A|---------------0--6--3----|A|-2-2--2-2--2-2--2-2----||
E|-0----0-----0-----4--1----|E|-0-0--0-0--0-0--0-0----||

E|------------------------------------------*5-------|
B|---------------------------------------*7----*7----|
G|--------------1h2-1h2p1----------------------------|   X2
D|----------2h3-----------3--------------------------|
A|-2-3--2-3--------------------2-3--2-3--------------|
E|-0-1--0-1--------------------0-1--2-3--------------|

E|----------------------------------|
B|----------------------------------|
G|----------------------------------|   X2
D|----------------------------------|
A|-4-4-5--4-7-5-2---4-4-5--4-7-5----|
E|-2-2-3--2-5-3-0---2-2-3--2-5-3----|

E|-------------------------------------------------|
B|-------------------------------------------*7----|
G|--------------1h2-1h2p1-----------------*5-------|
D|----------2h3-----------3------------------------|
A|-2-3--2-3---------------------2-3--2-3-----------|
E|-0-1--0-1---------------------0-1--2-3-----------|

E|-------------------------------------------*5-------|
B|----------------------------------------*7----*7----|
G|--------------1h2-1h2p1-----------------------------|
D|----------2h3-----------3---------------------------|
A|-2-3--2-3---------------------2-3--2-3--------------|
E|-0-1--0-1---------------------0-1--2-3--------------|

E|----------------------------------|
B|----------------------------------|
G|----------------------------------|   X2
D|----------------------------------|
A|-4-4-5--4-7-5-2---4-4-5--4-7-5----|
E|-2-2-3--2-5-3-0---2-2-3--2-5-3----|

-|--------  P.M  --------|
E|-----------------------|
B|-----------------------|
G|-----------------------|   X4
D|-----------------------|
A|-2-2--2-2--2-2--2-2----|
E|-0-0--0-0--0-0--0-0----|

E|------------------------------------------------------------|
B|------------------------------------------------------------|
G|--------------------1h2-1h2p1-------------------------------|   X2
D|----2----3----2-2h3-----------3--------2----3----2----------|
A|------------------------------------------------0--6--3-----|
E|-0----0-----0-----------------------0----0----0-----4--1----|

E|-----------------------------|--------------*5-------|
B|-----------------------------|-----------*7----*7----|
G|--------------1h2-1h2p1------|-----------------------|  X2
D|----------2h3-----------3----|-----------------------|
A|-2-3--2-3--------------------|-2-3--2-3--------------|
E|-0-1--0-1--------------------|-0-1--2-3--------------|

E|----------------------------------|
B|----------------------------------|
G|----------------------------------|   X2
D|----------------------------------|
A|-4-4-5--4-7-5-2---4-4-5--4-7-5----|
E|-2-2-3--2-5-3-0---2-2-3--2-5-3----|

-|--------  P.M  --------|
E|-----------------------|
B|-----------------------|
G|-----------------------|
D|-----------------------|
A|-2-2--2-2--2-2--2-2----|
E|-0-0--0-0--0-0--0-0----|


It's the end . Hope u like !!
Suggest correction
Give kudos to tab author, rate the tab!
1 2 3 4 5
comments
print report bad tab
guest
You may want to rate the tab now too:
select rating
Wanna post a correction for this tab? Suggest correction