Oops, an error
Loading. Please wait.

Checkin Out tab

by Sales
109 views 9 this week
no commentswrite comment
1 2 3 4 5
3 more votes to show rating
add to favorites
×
Save as Personal and add changes to this tab that will be seen only by you. Learn more ›
×
You can save this tab as Personal to edit and correct it or add notes. All changes will be seen only by you. Learn more »
launch autoscroll
font size
0
reset
how to read this tab
guitar tuner
edit
Autoscroll
slow
fast
+/-
esc
set tempo
stop
About this tab version
Album version. Same riff throughout the song. Was this info helpful? Yes No
[Intro]
e|----------------------------------------------------------------|
B|----------------------------------------------------------------|
G|-----2-0-----2-0-----2-0-----2-0-------0-------0-----2-0--------| (x2)
D|---3-------3-------3-------3-------2-0-----2-0-----2------------|
A|-1-------1-------1-------1-------3-------3-------3--------------|
E|----------------------------------------------------------------|

[Verse 1]
e|----------------------------------------------------------------|
B|----------------------------------------------------------------|
G|-----2-0-----2-0-----2-0-----2-0-------0-------0-----2-0--------|
D|---3-------3-------3-------3-------2-0-----2-0-----2------------|
A|-1-------1-------1-------1-------3-------3-------3--------------|
E|----------------------------------------------------------------|
coming-up empty,               i wanna get fired. 

e|----------------------------------------------------------------|
B|----------------------------------------------------------------|
G|-----2-0-----2-0-----2-0-----2-0-------0-------0-----2-0--------|
D|---3-------3-------3-------3-------2-0-----2-0-----2------------|
A|-1-------1-------1-------1-------3-------3-------3--------------|
E|----------------------------------------------------------------|
(not ungrateful,                 ready to retire)
 
e|----------------------------------------------------------------|
B|----------------------------------------------------------------|
G|-----2-0-----2-0-----2-0-----2-0-------0-------0-----2-0--------|
D|---3-------3-------3-------3-------2-0-----2-0-----2------------|
A|-1-------1-------1-------1-------3-------3-------3--------------|
E|----------------------------------------------------------------|
my life’s waiting for me,     waiting for me outside,

e|----------------------------------------------------------------|
B|----------------------------------------------------------------|
G|-----2-0-----2-0-----2-0-----2-0-------0-------0-----2-0--------|
D|---3-------3-------3-------3-------2-0-----2-0-----2------------|
A|-1-------1-------1-------1-------3-------3-------3--------------|
E|----------------------------------------------------------------|
in my mazda miata, baby.     i want to get fired. 

[Interlude]
e|----------------------------------------------------------------|
B|----------------------------------------------------------------|
G|-----2-0-----2-0-----2-0-----2-0-------0-------0-----2-0--------|
D|---3-------3-------3-------3-------2-0-----2-0-----2------------|
A|-1-------1-------1-------1-------3-------3-------3--------------|
E|----------------------------------------------------------------|

[Verse 2]
e|----------------------------------------------------------------|
B|----------------------------------------------------------------|
G|-----2-0-----2-0-----2-0-----2-0-------0-------0-----2-0--------|
D|---3-------3-------3-------3-------2-0-----2-0-----2------------|
A|-1-------1-------1-------1-------3-------3-------3--------------|
E|----------------------------------------------------------------|
have one, two, three better things to do than stand here all dry.
 
e|----------------------------------------------------------------|
B|----------------------------------------------------------------|
G|-----2-0-----2-0-----2-0-----2-0-------0-------0-----2-0--------|
D|---3-------3-------3-------3-------2-0-----2-0-----2------------|
A|-1-------1-------1-------1-------3-------3-------3--------------|
E|----------------------------------------------------------------|
you left me hanging out to dry. you left me hanging out to dry.

[Verse 3]
e|----------------------------------------------------------------|
B|----------------------------------------------------------------|
G|-----2-0-----2-0-----2-0-----2-0-------0-------0-----2-0--------|
D|---3-------3-------3-------3-------2-0-----2-0-----2------------|
A|-1-------1-------1-------1-------3-------3-------3--------------|
E|----------------------------------------------------------------|
coming up empty,              i wanna get fired. 

e|----------------------------------------------------------------|
B|----------------------------------------------------------------|
G|-----2-0-----2-0-----2-0-----2-0-------0-------0-----2-0--------|
D|---3-------3-------3-------3-------2-0-----2-0-----2------------|
A|-1-------1-------1-------1-------3-------3-------3--------------|
E|----------------------------------------------------------------|
i’m not ungrateful, baby, to anyone--   i want to retire.

e|----------------------------------------------------------------|
B|----------------------------------------------------------------|
G|-----2-0-----2-0-----2-0-----2-0-------0-------0-----2-0--------|
D|---3-------3-------3-------3-------2-0-----2-0-----2------------|
A|-1-------1-------1-------1-------3-------3-------3--------------|
E|----------------------------------------------------------------| 
my life’s waiting for me,           waiting for me outside. 

e|----------------------------------------------------------------|
B|----------------------------------------------------------------|
G|-----2-0-----2-0-----2-0-----2-0-------0-------0-----2-0--------|
D|---3-------3-------3-------3-------2-0-----2-0-----2------------|
A|-1-------1-------1-------1-------3-------3-------3--------------|
E|----------------------------------------------------------------|
the car’s still running, running, and I’m waiting not to be hung 
                                      out to dry.

[Outro]
e|----------------------------------------------------------------|
B|----------------------------------------------------------------|
G|-----2-0-----2-0-----2-0-----2-0-------0-------0-----2-0--------|
D|---3-------3-------3-------3-------2-0-----2-0-----2------------|
A|-1-------1-------1-------1-------3-------3-------3--------------|
E|----------------------------------------------------------------|
Suggest correction
Creating personal tab
Creating personal tab
You can edit any tab online and save it as your Personal.

You can edit, replace or remove any tab part or add personal notes – all changes will be seen only by you.

Personal tabs can be accessed anytime from any device, even offline.
Learn more »
Give kudos to tab author, rate the tab!
1 2 3 4 5
comments
print report bad tab
guest
You may want to rate the tab now too:
select rating
Wanna post a correction for this tab? Suggest correction