Oops, an error
Loading. Please wait.

Always Acoustic tab

version 5
version 5

Whole song

Interactive

by Saliva
31 views 3 this week
no commentswrite comment
1 2 3 4 5
3 more votes to show rating
add to favorites
×
Save as Personal and add changes to this tab that will be seen only by you. Learn more ›
×
You can save this tab as Personal to edit and correct it or add notes. All changes will be seen only by you. Learn more »
launch autoscroll
font size
0
reset
how to read this tab
guitar tuner
backing track
0:00
0:00
edit
Autoscroll
slow
fast
+/-
esc
set tempo
stop
About this tab version
Acoustic version with Bobby Amaru singing, the other acoustic version was slightly off. Was this info helpful? Yes No
Artist: Saliva (Bobby Amaru singing)
Song: Always
Youtube Link: https://www.youtube.com/watch?v=LX6x8bVKsZs
Version: Acoustic version with Bobby Amaru singing
Tuning: Dropped Db (Tune whole guitar down a half step, then bottom E down another whole step)

[Verse 1]
Eb|------------------------------------------|
Bb|------------------------------------------|
Gb|--------------------------7---------------| (Play 4 times)
Db|------2--------5--------7---7------7------|
Ab|----2---2----5---5---------------7---7----|
Db|--2--------5----------0--------7----------|

I hear a voice say "Don't be so blind"
It's telling me all these things That you would probably hide
Am I your one and only desire
Am I the reason you breathe Or am I the reason you cry

[Pre-Chorus]
Eb|----------------------------------------------|----------------------------------------------|
Bb|----------------------------------------------|----------------------------------------------|
Gb|----------------------------------------------|----------------------------------------------| 
Db|----------------------------------------------|----------------------------------------------|
Ab|--/10-10-10-10--10-10-10-10--9-9-9-9--9-9-9-9-|-7-7-7-7--7-7-7-7--/10-10-10-10--/12-12-12-12-|
Db|--/10-10-10-10--10-10-10-10--9-9-9-9--9-9-9-9-|-7-7-7-7--7-7-7-7--/10-10-10-10--/12-12-12-12-|

Always, always, always, always, always, always                     I just can't live without you

[Chorus]
Eb|------------------------------------------|
Bb|--------------------3-3-x-x---------------| (Repeat)
Gb|--------------------2-2-x-x---------------| 
Db|--------------------0-0-x-x---------------|
Ab|--2-2-x-x--5-5-x-x-----------7-7-x-x------|
Db|--2-2-x-x--5-5-x-x-----------7-7-x-x------|

I love you, I hate you, I can't get around you
I breathe you, I taste you, I can't live without you

Eb|------------------------------------------|
Bb|--------------------3-3-3----3-3-3-3------|
Gb|--------------------2-2-2----0-0-0-0------| (Repeat)
Db|--------------------0-0-0----2-2-2-2------|
Ab|--2-2-2--2/5-5-5-------------3-3-3-3------|
Db|--2-2-2--2/5-5-5--------------------------|

I just can't take anymore this life of solitude
I guess that I'm out the door and now I'm done with you

[Verse 2]
Eb|------------------------------------------|
Bb|------------------------------------------|
Gb|--------------------------7---------------| (Play 6 times)
Db|------2--------5--------7---7------7------| (Twice solo then verse singing comes in)
Ab|----2---2----5---5----------------7---7---|
Db|--2--------5----------0--------7----------|

I feel, like you don't want me around,
I guess I'll pack all my things, I guess I'll see you around,
It's all been bottled up until now
As I walk out your door, All I can hear is the sound

[Pre-Chorus]
Eb|----------------------------------------------|----------------------------------------------|
Bb|----------------------------------------------|----------------------------------------------|
Gb|----------------------------------------------|----------------------------------------------| 
Db|----------------------------------------------|----------------------------------------------|
Ab|--/10-10-10-10--10-10-10-10--9-9-9-9--9-9-9-9-|-7-7-7-7--7-7-7-7--/10-10-10-10--/12-12-12-12-|
Db|--/10-10-10-10--10-10-10-10--9-9-9-9--9-9-9-9-|-7-7-7-7--7-7-7-7--/10-10-10-10--/12-12-12-12-|

        Always, always, always, always, always, always                   I just can't live without you

[Chorus]
Eb|------------------------------------------|
Bb|--------------------3-3-x-x---------------| (Repeat)
Gb|--------------------2-2-x-x---------------| 
Db|--------------------0-0-x-x---------------|
Ab|--2-2-x-x--5-5-x-x-----------7-7-x-x------|
Db|--2-2-x-x--5-5-x-x-----------7-7-x-x------|

I love you, I hate you, I can't get around you
I breathe you, I taste you, I can't live without you

Eb|------------------------------------------|
Bb|--------------------3-3-3----3-3-3-3------|
Gb|--------------------2-2-2----0-0-0-0------| (Repeat)
Db|--------------------0-0-0----2-2-2-2------|
Ab|--2-2-2--2/5-5-5-------------3-3-3-3------|
Db|--2-2-2--2/5-5-5--------------------------|

I just can't take anymore this life of solitude
I guess that I'm out the door and now I'm done with you

Eb|-------------------|-----------------------|
Bb|-------------------|-3-3-x-x---------------| 
Gb|-------------------|-2-2-x-x---------------| 
Db|-------------------|-0-0-x-x---------------|
Ab|--2-2-x-x--5-5-x-x-|----------10-10-10-10--|
Db|--2-2-x-x--5-5-x-x-|----------10-10-10-10--|

I love you, I hate you, I can't live without you

[Bridge]
Eb|-------------------------------------------------------------------------------------------|
Bb|-------------------------------------------------------------------------------------------|
Gb|-------------------------------------------------------------------------------------------| 
Db|-------------------------------------------------------------------------------------------| (Repeat)
Ab|--7-7-7-7--7-7-7-7--5-5-5-5--5-5-5-5--0h2-2-2--0h2-2-2--2/3-3-3--0h2-2-2--0h2-2-2--2/3-3-3-|
Db|--7-7-7-7--7-7-7-7--5-5-5-5--5-5-5-5--0h2-2-2--0h2-2-2--2/3-3-3--0h2-2-2--0h2-2-2--2/3-3-3-|

I left my head around your heart
Why would you tear my world apart

Eb|-------------------|-------------------------|
Bb|-------------------|-------------------------|
Gb|-------------------|-------------------------| 
Db|-------------------|-------------------------|
Ab|--7-7-7-7--7-7-7-7-|-7/10-10-10---10/12-12\--|
Db|--7-7-7-7--7-7-7-7-|-7/10-10-10---10/12-12\--|

Always, always, always, always

[Verse 3]
Eb|------------------------------------------|
Bb|------------------------------------------|
Gb|--------------------------7---------------| (Play 4 times)
Db|------2--------5--------7---7------7------|
Ab|----2---2----5---5---------------7---7----|
Db|--2--------5----------0--------7----------|

I see, the blood all over your hands
Does it make you feel, more like a man
Was it all, just a part of your plan
This pistol's shakin' in my hands, and all I hear is the sound

[Chorus]
Eb|------------------------------------------|
Bb|--------------------3-3-x-x---------------| (Repeat)
Gb|--------------------2-2-x-x---------------| 
Db|--------------------0-0-x-x---------------|
Ab|--2-2-x-x--5-5-x-x-----------7-7-x-x------|
Db|--2-2-x-x--5-5-x-x-----------7-7-x-x------|

I love you, I hate you, I can't get around you
I breathe you, I taste you, I can't live without you

Eb|------------------------------------------|
Bb|--------------------3-3-3----3-3-3-3------|
Gb|--------------------2-2-2----0-0-0-0------| (Repeat)
Db|--------------------0-0-0----2-2-2-2------|
Ab|--2-2-2--2/5-5-5-------------3-3-3-3------|
Db|--2-2-2--2/5-5-5--------------------------|

I just can't take anymore this life of solitude
I guess that I'm out the door and now I'm done with you

Eb|-------------------|---------------------------|
Bb|-------------------|-3-3-x-x-------------------| 
Gb|-------------------|-2-2-x-x-------------------| 
Db|-------------------|-0-0-x-x-------------------|
Ab|--2-2-x-x--5-5-x-x-|----------10-10-10-10------|
Db|--2-2-x-x--5-5-x-x-|----------10-10-10-10------|

I love you, I hate you, I can't live without you

Eb|------------------------------------------|
Bb|--------------------3-3-x-x---------------| (Once)
Gb|--------------------2-2-x-x---------------| 
Db|--------------------0-0-x-x---------------|
Ab|--2-2-x-x--5-5-x-x-----------7-7-x-x------|
Db|--2-2-x-x--5-5-x-x-----------7-7-x-x------|

I love you, I hate you, I can't live without you

Eb|------------------------------------------|
Bb|--------------------3-3-3----3-3-3-3------|
Gb|--------------------2-2-2----0-0-0-0------| (Repeat)
Db|--------------------0-0-0----2-2-2-2------|
Ab|--2-2-2--2/5-5-5-------------3-3-3-3------|
Db|--2-2-2--2/5-5-5--------------------------|

I just can't take anymore this life of solitude
I guess that I'm out the door and now I'm done with you

Eb|------------------------------------------|
Bb|--------------------3-3-x-x--3------------| 
Gb|--------------------2-2-x-x--0------------| 
Db|--------------------0-0-x-x--2------------|
Ab|--2-2-x-x--5-5-x-x-----------3------------|
Db|--2-2-x-x--5-5-x-x------------------------|

Always, always, always

***********************************

| /   Slide up
| \   Slide down
| h   Hammer-on
| x   Dead note

***********************************

            
            
Suggest correction
Creating personal tab
Creating personal tab
You can edit any tab online and save it as your Personal.

You can edit, replace or remove any tab part or add personal notes – all changes will be seen only by you.

Personal tabs can be accessed anytime from any device, even offline.
Learn more »
Give kudos to tab author, rate the tab!
1 2 3 4 5
comments
print report bad tab
guest
You may want to rate the tab now too:
select rating
Wanna post a correction for this tab? Suggest correction