Oops, an error
Loading. Please wait.

Bleed For Me solo tab

version 1
version 1

Solo

Whole song

Interactive

by Saliva
2,461 views 1 this week
2 commentsread comments
1 2 3 4 5
x 3
add to favorites
×
Save as Personal and add changes to this tab that will be seen only by you. Learn more ›
×
You can save this tab as Personal to edit and correct it or add notes. All changes will be seen only by you. Learn more »
launch autoscroll
font size
0
reset
how to read this tab
guitar tuner
edit
Autoscroll
slow
fast
+/-
esc
set tempo
stop
Author
Saliva - Bleed For Me
Daredevil OST

My first tab!

solo
02:36
E|-4--------------4--------------4-------------------------------|
B|---------------------------------------------------------------|
G|---6-5---5-6------6-5-3-5-6------6-5-3-5-6--1/3-1--------------|
D|-------6------------------------------------------4-3--3-1-----|
A|-----------------------------------------------------------4---|
E|-------------------------------------------------------------4-|

02:48                          
E|---------------------------------------------------------------|
B|----------------------------11b---9--11------------------------|
G|---5-6-8-8/10------------10------------10-8--------------------|
D|-6---------------8-10-11--------------------11-----------------|
A|---------------------------------------------------------------|
E|---------------------------------------------------------------|

02:56                                             
E|-----------------------------------------------18b--18-16------|
B|------------------------9-11----14h16h18p16p14-----------------|
G|--------------8--8-10-------10---------------------------------|
D|-8-10-11-10-11-11----------------------------------------------|
A|---------------------------------------------------------------|
E|---------------------------------------------------------------|

b - bend
h - hammer-on
p - pull-off


Not too sure if this is right cause i tabbed it with an acoustic
but it sounds ok when u play along with the song(i think).

            
            
Suggest correction
Creating personal tab
Creating personal tab
You can edit any tab online and save it as your Personal.

You can edit, replace or remove any tab part or add personal notes – all changes will be seen only by you.

Personal tabs can be accessed anytime from any device, even offline.
Learn more »
Give kudos to tab author, rate the tab!
1 2 3 4 5
comments
print report bad tab
2 comments total.
0 reply
thispagecannotb 10 Apr 07, 2006 05:58 AM

NICE TAB =)

0 reply
SlayerSYD 126 Apr 08, 2006 04:01 AM

some corrections:
E|---------------------------------------------------------------|
B|----------------------------11b---9--11------------------------|
G|---5-6-8-8/10------------10------------10-8--------------------|
D|-6---------------8-10-11--------------------11-----------------|
A|---------------------------------------------------------------|
E|---------------------------------------------------------------|
sounds more to me like:
E|---------------------------------------------------------------|
B|----------------------------------------11---------------------|
G|---5-6-8-8b10~~----------10-13b15---13-----10-8----------------|
D|-6---------------8-10-11------------------------11-------------|
A|---------------------------------------------------------------|
E|---------------------------------------------------------------|

and this:
E|-----------------------------------------------18b--18-16------|
B|------------------------9-11----14h16h18p16p14-----------------|
G|--------------8--8-10-------10---------------------------------|
D|-8-10-11-10-11-11----------------------------------------------|
A|---------------------------------------------------------------|
E|---------------------------------------------------------------|
sounds more like: v-not sure about P/H|hold bend
E|-----------------------------------------------16b(18)~~====(18)r16-|
B|------------------------9-11----14h16h18p16p14----------------------|
G|--------------8--8-10-------10--------------------------------------|
D|-8-10-11-10-11-11---------------------------------------------------|
A|--------------------------------------------------------------------|
E|--------------------------------------------------------------------|

guest
You may want to rate the tab now too:
select rating
Wanna post a correction for this tab? Suggest correction