Oops, an error
Loading. Please wait.

Click Click Boom Bass Tab

version 4
version 4

Whole song

Interactive

2,165 views 1 this week
no commentswrite comment
1 2 3 4 5
please rate
add to favorites
launch autoscroll
font size
0
reset
guitar tuner
Autoscroll
slow
fast
+/-
esc
set tempo
stop
Help us to improve Ultimate-Guitar.com Take our survey!
×
-------------------------------------------------------------------------------
                          Click Click Boom - Saliva
-------------------------------------------------------------------------------
Tabbed by: Nuke War
E-mail: 

Tuning: C#, G#, C#, F#



Intro

F#|-----------------------------------------------------| x4
C#|-----------------------------------------------------|
G#|-----------------------------------------------------|
C#|-0---10--12p10\-5--5-3-0-3-0---10--12p10-------------|

F#|---------|
C#|---------|
G#|---------|
C#|-12\-----|


Verse Riff         

F#|-----------------------| x8
C#|-----------------------|
G#|-----------------------|
C#|-0----1--1----3--3-5-3-|


Click Click Boom

F#|-----------------------------------------------------| x4
C#|-----------------------------------------------------|
G#|-----------------------------------------------------|
C#|-0---10--12p10\-5--5-3-0-3-0---10--12p10-------------|


Chorus

F#|------------------------------------------------------------------|
C#|------------------------------------------------------------------|
G#|------------------------------------------------------------------|
C#|-8----8-8--8-8-8-8----8-8--8-8-8-5----5-5--5-5-5-5----5-5--5-5-5--|

F#|------------------------------------------------------------------|
C#|------------------------------------------------------------------|
G#|------------------------------------------------------------------|
C#|-8----8-8--8-8-8-8----8-8--8-8-8-5----5-5--5-5-5-5----5-5--5-5-3--|


Click Click Boom

F#|-----------------------------------------------------| x2
C#|-----------------------------------------------------|
G#|-----------------------------------------------------|
C#|-0---10--12p10\-5--5-3-0-3-0---10--12p10-------------|

F#|---------|
C#|---------|
G#|---------|
C#|-12\-----|


Verse Riff         

F#|-----------------------| x8
C#|-----------------------|
G#|-----------------------|
C#|-0----1--1----3--3-5-3-|


Click Click Boom

F#|-----------------------------------------------------| x4
C#|-----------------------------------------------------|
G#|-----------------------------------------------------|
C#|-0---10--12p10\-5--5-3-0-3-0---10--12p10-------------|

F#|---------|
C#|---------|
G#|---------|
C#|-12\-----|


Chorus

F#|-----------------------------------------------------------------|
C#|-----------------------------------------------------------------|
G#|-----------------------------------------------------------------|
C#|-8----8-8--8-8-8-8----8-8--8-8-8-5----5-5--5-5-5-5----5-5--5-5-5-|

F#|-----------------------------------------------------------------|
C#|-----------------------------------------------------------------|
G#|-----------------------------------------------------------------|
C#|-8----8-8--8-8-8-8----8-8--8-8-8-5----5-5--5-5-5-5----5-5--5-5-3-|


Click Click Boom

F#|-----------------------------------------------------| x4
C#|-----------------------------------------------------|
G#|-----------------------------------------------------|
C#|-0---10--12p10\-5--5-3-0-3-0---10--12p10-------------|

F#|---------|
C#|---------|
G#|---------|
C#|---------|


Bridge/Interlude

F#|--------------------------------------| x4
C#|--------------------------------------|
G#|--------------------------------------|
C#|-0-0-0-10-10-10-10-10-5-5-5-3-3-3-3-3-|

F#|---------------------------------------|------------------------------------| 
C#|---------------------------------------|------------------------------------|
G#|---------------------------------------|------------------------------------|
C#|-12-12-12-8-8-8-8-8-10-10-10-5-5-5-5-5-|-12-12-12-8-8-8-8-8-7-7-7-5-5-5-5-5-|

F#|---------------------------------------|------------------------------------| 
C#|---------------------------------------|------------------------------------|
G#|---------------------------------------|------------------------------------|
C#|-12-12-12-8-8-8-8-8-10-10-10-5-5-5-5-5-|-12-12-12-8-8-8-8-8-7-7-7-7-7-7\----|


Click Click Boom

F#|-----------------------------------------------------| x4
C#|-----------------------------------------------------|
G#|-----------------------------------------------------|
C#|-0---10--12p10\-5--5-3-0-3-0---10--12p10-------------|


Outro

F#|-----------------------------------------------------| x3
C#|-----------------------------------------------------|
G#|-----------------------------------------------------|
C#|-0---10--12p10\-5--5-3-0-3-0---10--12p10\-5--5-3-0-3-|


F#|-----------------------------------------------------|
C#|-----------------------------------------------------|
G#|-----------------------------------------------------|
C#|-0---10--12p10\-5--5-3-0-3-0---10--12p10-------------|
Suggest correction
What's this?
You can suggest a correction to this tab. Community and Mods will review your correction and vote to approve or reject it.
comments
We did not receive enough feedback on this tab! Please rate:
print report bad tab
1 2 3 4 5
guest
You may want to rate the tab now too:
select rating
Please do not post tabs as comments. Select "correction" instead!