Oops, an error
Loading. Please wait.

I Walk Alone tab

version 3
version 3

Whole song

by Saliva
14,505 views 24 this week
3 commentsread comments
1 2 3 4 5
x 11
add to favorites
×
Save as Personal and add changes to this tab that will be seen only by you. Learn more ›
×
You can save this tab as Personal to edit and correct it or add notes. All changes will be seen only by you. Learn more »
launch autoscroll
font size
0
reset
how to read this tab
guitar tuner
edit
Autoscroll
slow
fast
+/-
esc
set tempo
stop
#----------------------------------PLEASE NOTE--------------------------------#
#This file is the author's own work and represents their interpretation of the#
#song. You may only use this file for private study, scholarship, or research.#
#-----------------------------------------------------------------------------#

Author/Artist: Saliva
Title: I walk alone
Tabbed by: Jan Schuster
Email: admin@janschuster.com

Tuning: Db Ab Db Gb Bb Eb (Tune Drop D and half step down)

x = Deadnotes


I am pretty sure that this is about 100% correct.

INTRO
#####
Eb|--------------------------------------------------------------------------|
Bb|--------------------------------------------------------------------------|
Gb|--------------------------------------------------------------------------|
Db|--------------------------------------------------------------------------|
Ab|--3--0--3--0--3--0--3-5-3-5----3--0--3--0--3-6-3-5-3-5-3~-----------------|
Db|--3--0--3--0--3--0--3-5-3-5----3--0--3--0--3-6-3-5-3-5-3~-----------------|

    Yeah! 
Eb|--------------------------------------------------------------------------|
Bb|--------------------------------------------------------------------------|
Gb|--------------------------------------------------------------------------|
Db|--3--0--3--0--3--0--3-5-3-5----3--0--3--0--3-6-5-5-3----------------------|
Ab|--3--0--3--0--3--0--3-5-3-5----3--0--3--0--3-6-5-5-3----------------------|
Db|--3--0--3--0--3--0--3-5-3-5----3--0--3--0--3-6-5-5-3----------------------|

Eb|--------------------------------------------------------------------------|
Bb|--------------------------------------------------------------------------|
Gb|--------------------------------------------------------------------------|
Db|--3--0--3--0--3--0--3-5-3-5----3--0--3--0--3-6-5-5-3----------------------|
Ab|--3--0--3--0--3--0--3-5-3-5----3--0--3--0--3-6-5-5-3----------------------|
Db|--3--0--3--0--3--0--3-5-3-5----3--0--3--0--3-6-5-5-3----------------------|


VERSE
#####
    This television has a poison on its breath.
Eb|--------------------------------------------------------------------------|
Bb|--------------------------------------------------------------------------|
Gb|--------------------------------------------------------------------------|
Db|--0~--3~--6~--5~----0~--3~--6~--5~----------------------------------------|
Ab|--0~--3~--6~--5~----0~--3~--6~--5~----------------------------------------|
Db|--0~--3~--6~--5~----0~--3~--6~--5~----------------------------------------|


PRE-CHORUS
##########
    I walk for miles inside this pit of danger. 
Eb|--------------------------------------------------------------------------|
Bb|--------------------------------------------------------------------------|
Gb|--------------------------------------------------------------------------|
Db|--5-\-7-7-7-7--5----------------------------------------------------------|
Ab|--3-\-5-5-5-5--3--5-\-6-6-6-6-/-5--3-5-3----------------------------------|
Db|------------------5-\-6-6-6-6-/-5--3-5-3----------------------------------|


CHORUS
######
    I walk alone
Eb|--------------------------------------------------------------------------|
Bb|--------------------------------------------------------------------------|
Gb|--------------------------------------------------------------------------|
Db|--3--0--3--0--3--0--3-5-3-5----3--0--3--0--3-6-5-5-3----------------------|
Ab|--3--0--3--0--3--0--3-5-3-5----3--0--3--0--3-6-5-5-3----------------------|
Db|--3--0--3--0--3--0--3-5-3-5----3--0--3--0--3-6-5-5-3----------------------|


VERSE
#####
    I'm sick of all these people talkin' out their heads.
Eb|--------------------------------------------------------------------------|
Bb|--------------------------------------------------------------------------|
Gb|--------------------------------------------------------------------------|
Db|--0~--3~--6~--5~----0~--3~--6~--5~----------------------------------------|
Ab|--0~--3~--6~--5~----0~--3~--6~--5~----------------------------------------|
Db|--0~--3~--6~--5~----0~--3~--6~--5~----------------------------------------|


PRE-CHORUS
##########
    I walk for miles inside this pit of danger. 
Eb|--------------------------------------------------------------------------|
Bb|--------------------------------------------------------------------------|
Gb|--------------------------------------------------------------------------|
Db|--5-\-7-7-7-7--5----------------------------------------------------------|
Ab|--3-\-5-5-5-5--3--5-\-6-6-6-6-/-5--3-5-3----------------------------------|
Db|------------------5-\-6-6-6-6-/-5--3-5-3----------------------------------|


CHORUS / SOLO-BACKGROUND-GUITAR
###############################
    I walk alone
Eb|--------------------------------------------------------------------------|
Bb|--------------------------------------------------------------------------|
Gb|--------------------------------------------------------------------------|
Db|--0-0-0--0-0-0--0-0-0-0--3-3-3--3-3-3--3-3-3-3----------------------------|
Ab|--0-0-0--0-0-0--0-0-0-0--3-3-3--3-3-3--3-3-3-3----------------------------|
Db|--0-0-0--0-0-0--0-0-0-0--3-3-3--3-3-3--3-3-3-3----------------------------|
pm   . . .  . . .  . . . .  . . .  . . .  . . . . 

Eb|--------------------------------------------------------------------------|
Bb|--------------------------------------------------------------------------|
Gb|--------------------------------------------------------------------------|
Db|--6-6-6--6-6-6--6-6-6-6--5-5-5--5-5-5--5-5-5-5----------------------------|
Ab|--6-6-6--6-6-6--6-6-6-6--5-5-5--5-5-5--5-5-5-5----------------------------|
Db|--6-6-6--6-6-6--6-6-6-6--5-5-5--5-5-5--5-5-5-5----------------------------|
pm   . . .  . . .  . . . .  . . .  . . .  . . . .

Eb|--------------------------------------------------------------------------|
Bb|--------------------------------------------------------------------------|
Gb|--------------------------------------------------------------------------|
Db|--0-0-0--0-0-0--0-0-0-0--3-3-3--3-3-3--3-3-3-3----------------------------|
Ab|--0-0-0--0-0-0--0-0-0-0--3-3-3--3-3-3--3-3-3-3----------------------------|
Db|--0-0-0--0-0-0--0-0-0-0--3-3-3--3-3-3--3-3-3-3----------------------------|
pm   . . .  . . .  . . . .  . . .  . . .  . . . . 

Eb|--------------------------------------------------------------------------|
Bb|--------------------------------------------------------------------------|
Gb|--------------------------------------------------------------------------|
Db|--6-6-6--6-6-6--6-6-6-6--5-5-5--5-5-5--5-5-5-5----------------------------|
Ab|--6-6-6--6-6-6--6-6-6-6--5-5-5--5-5-5--5-5-5-5----------------------------|
Db|--6-6-6--6-6-6--6-6-6-6--5-5-5--5-5-5--5-5-5-5----------------------------|
pm   . . .  . . .  . . . .  . . .  . . .  . . . .

Eb|--------------------------------------------------------------------------|
Bb|--------------------------------------------------------------------------|
Gb|--------------------------------------------------------------------------|
Db|--0~--3~--6~--5~----0~--3~--6~--5~----------------------------------------|
Ab|--0~--3~--6~--5~----0~--3~--6~--5~----------------------------------------|
Db|--0~--3~--6~--5~----0~--3~--6~--5~----------------------------------------|

Eb|--------------------------------------------------------------------------|
Bb|--------------------------------------------------------------------------|
Gb|--------------------------------------------------------------------------|
Db|--0~--3~--6~--5~----0~--3~--6~--5~----------------------------------------|
Ab|--0~--3~--6~--5~----0~--3~--6~--5~----------------------------------------|
Db|--0~--3~--6~--5~----0~--3~--6~--5~----------------------------------------|


OUTRO
#####
    I walk for miles inside this pit of danger. 
Eb|--------------------------------------------------------------------------|
Bb|--------------------------------------------------------------------------|
Gb|--------------------------------------------------------------------------|
Db|--5-\-7-7-7-7--5----------------------------------------------------------|
Ab|--3-\-5-5-5-5--3--5-\-6-6-6-6-/-5--3-5-3----------------------------------|
Db|------------------5-\-6-6-6-6-/-5--3-5-3----------------------------------|

    I've swallowed down a thousand years of anger. 
Eb|--------------------------------------------------------------------------|
Bb|--------------------------------------------------------------------------|
Gb|--------------------------------------------------------------------------|
Db|--5-\-7-7-7-7--5----------------------------------------------------------|
Ab|--3-\-5-5-5-5--3--5-\-6-6-6-6-/-5--3-5-3----------------------------------|
Db|------------------5-\-6-6-6-6-/-5--3-5-3----------------------------------|

    The weight of the world is falling on my shoulders.
Eb|--------------------------------------------------------------------------|
Bb|--------------------------------------------------------------------------|
Gb|--------------------------------------------------------------------------|
Db|--5-\-7-7-7-7--5----------------------------------------------------------|
Ab|--3-\-5-5-5-5--3--5-\-6-6-6-6-/-5--3-5-3----------------------------------|
Db|------------------5-\-6-6-6-6-/-5--3-5-3----------------------------------|

    A place where no one follows me
Eb|--------------------------------------------------------------------------|
Bb|--------------------------------------------------------------------------|
Gb|--------------------------------------------------------------------------|
Db|--5-\-7-7-7-7--5----------------------------------------------------------|
Ab|--3-\-5-5-5-5--3--5-\-6-6-6-6-/-5--3-5-3----------------------------------|
Db|------------------5-\-6-6-6-6-/-5--3-5-3----------------------------------|

    I walk alone
Eb|--------------------------------------------------------------------------|
Bb|--------------------------------------------------------------------------|
Gb|--------------------------------------------------------------------------|
Db|--3--0--3--0--3--0--3-5-3-5----3--0--3--0--3-6-5-5-3----------------------|
Ab|--3--0--3--0--3--0--3-5-3-5----3--0--3--0--3-6-5-5-3----------------------|
Db|--3--0--3--0--3--0--3-5-3-5----3--0--3--0--3-6-5-5-3----------------------|

                                          I walk alone
Eb|--------------------------------------------------------------------------|
Bb|--------------------------------------------------------------------------|
Gb|--------------------------------------------------------------------------|
Db|--3--0--3--0--3--0--3-5-3-5----3--0--3--0--3-6-5-5-3----------------------|
Ab|--3--0--3--0--3--0--3-5-3-5----3--0--3--0--3-6-5-5-3----------------------|
Db|--3--0--3--0--3--0--3-5-3-5----3--0--3--0--3-6-5-5-3----------------------|

Eb|--------------------------------------------------------------------------|
Bb|--------------------------------------------------------------------------|
Gb|--------------------------------------------------------------------------|
Db|--3--0--3--0--3--0--3-5-3-5----3--0--3--0--3-6-5-5-3----------------------|
Ab|--3--0--3--0--3--0--3-5-3-5----3--0--3--0--3-6-5-5-3----------------------|
Db|--3--0--3--0--3--0--3-5-3-5----3--0--3--0--3-6-5-5-3----------------------|

    Yeah
Eb|--------------------------------------------------------------------------|
Bb|--------------------------------------------------------------------------|
Gb|--------------------------------------------------------------------------|
Db|--3--0--3--0--3--0--3-5-3-5----3--0--3--0--3-6-5-5-3----------------------|
Ab|--3--0--3--0--3--0--3-5-3-5----3--0--3--0--3-6-5-5-3----------------------|
Db|--3--0--3--0--3--0--3-5-3-5----3--0--3--0--3-6-5-5-3----------------------|

    
Eb|--------------------------------------------------------------------------|
Bb|--------------------------------------------------------------------------|
Gb|--------------------------------------------------------------------------|
Db|--0~----------------------------------------------------------------------|
Ab|--0~----------------------------------------------------------------------|
Db|--0~----------------------------------------------------------------------|
Suggest correction
Creating personal tab
Creating personal tab
You can edit any tab online and save it as your Personal.

You can edit, replace or remove any tab part or add personal notes – all changes will be seen only by you.

Personal tabs can be accessed anytime from any device, even offline.
Learn more »
comments
print report bad tab
3 comments total.
+3 reply
littlerocker141 154 Nov 15, 2008 01:25 PM

nice tab, if any body watchs Raw this is Batistas theme song.100%

0 reply
x95_D-Roc_95x 81 Apr 14, 2009 04:35 PM

Looks pretty good, the only part that isnt good is the intr/main riff.

Your tab says:

e|--------------------------------------------|
B|--------------------------------------------|
G|--------------------------------------------|
D|--------------------------------------------|
A|-3-0-3-0-3-0-3-5-3-5-3-0-3-0-3-6-3-5-3-5-3~-|
D|-3-0-3-0-3-0-3-5-3-5-3-0-3-0-3-6-3-5-3-5-3~-|

the way it is really played is:

e|--------------------------------------------|
G|--------------------------------------------|
B|--------------------------------------------|
D|--------------------------------------------|
A|-3-0-3-0-3-0-3-5-3-5-0-3-0-3-0-6-0-6-0-5-3~-|
D|-3-0-3-0-3-0-3-5-3-5-0-3-0-3-0-6-0-6-0-5-3~-|

0 reply
KoRn6191 10 Jun 17, 2009 01:17 PM

i have to agree too

guest
You may want to rate the tab now too:
select rating
Wanna post a correction for this tab? Suggest correction