Oops, an error
Loading. Please wait.

Lackluster Tab

version 1
version 1

Whole song

Interactive

by Saliva
853 views 1 this week
no commentswrite comment
1 2 3 4 5
1 last vote to show rating
add to favorites
×
Save as Personal and add changes to this tab that will be seen only by you. Learn more ›
×
You can save this tab as Personal to edit and correct it or add notes. All changes will be seen only by you. Learn more »
save as personal
new!
launch autoscroll
font size
0
reset
how to read this tab
guitar tuner
Autoscroll
slow
fast
+/-
esc
set tempo
stop
Artist: Saliva
Track: Lackluster (7)
Album: Every Six Seconds

Intro 1st Part
E---------------------|
B---------------------|
G---------------------|
D-------------2/3-2/3-|
A-------------2/3-2/3-|
E-xx-xx-xxx-x---------|
Play 14 Times (On the 6th time play the part witht he slides with increased volume.)

Intro 2nd Part
E----------------------|
B-11br~-9br~-7br~-5b/3-|
G----------------------|
D----------------------|
A----------------------|
E----------------------|
Release the bends pretty slowly

Verse 1 1st Half
The verse doesnt sound like its on a guitar so you can just play your top three strings 

muted on beat with the song.

Mid Verse Bridge
E----|---------------------|
B----|---------------------|
G----|---------------------|
D-33-|-------------2/3-2/3-|
A-33-|-------------2/3-2/3-|
E-11-|-xx-xx-xxx-x---------|
Play the second half 4 times

Verse 1 2nd Half
The verse doesnt sound like its on a guitar so you can just play your top three strings 

muted on beat with the song.

Pre Chorus
E-----|-----------|
B-----|-----------|
G--22-|-2222------|
D--22-|-2222-2222-|
A--00-|-0000-2222-|
E-x---|------0000-|

Play 1st half of intro Twice

E---------------------|
B---------------------|
G-2222----------------|
D-2222-2222-5555-2222-|
A-0000-2222-5555-2222-|
E------0000-3333-0000-|

Chorus
E--------------------|
B--------------------|
G--------------------|
D-5-5--3-3--5-5--2-2-|
A-5-5--3-3--5-5--2-2-|
E-3-3--1-1--3-3--0-0-|

Play 1st half of intro 4 times + The 2nd half of the intro

Verse 2
The verse doesnt sound like its on a guitar so you can just play your top three strings 

muted on beat with the song.

Play Chorus Twice

Play first half of intro 8 times

Solo - It's not exactly right but I did the best I could
E-------------------------------------|
B-15b-15b-r---------------------------|
G-----------14/16-14p12\10-10/12-12\8-|
D-------------------------------------|
A-------------------------------------|
E-------------------------------------|

E----------------------------------------------------------|
B-10b-8b/11-10b-8~-8/10\8-7b-7b-7b-7b-9-11b-11b-11b-11b-13-|
G----------------------------------------------------------|
D----------------------------------------------------------|
A----------------------------------------------------------|
E----------------------------------------------------------|

E-------------------------------------|--------------------|
B-----------------19b~17b-17b-17b\15v-|-17b~-17b-17b-17b-r-|
G-15v-17v-19v-21v---------------------|--------------------|
D-------------------------------------|--------------------|
A-------------------------------------|--------------------|
E-------------------------------------|--------------------|
                                       Barely Audible

E---------------------------------------------|
B-17/19-19-17/19-19-17/19-19-17/19-19---------|
G-------------------------------------15~-----|
D-----------------------------------------17~-|
A---------------------------------------------|
E---------------------------------------------|

Play Chorus 4 Times

Play the first half of the intro 3 Times
Suggest correction
Give kudos to tab author, rate the tab!
1 2 3 4 5
comments
print report bad tab
guest
Wanna post a correction for this tab? Suggest correction