Oops, an error
Loading. Please wait.

My Goodbyes bass

by Saliva
283 views 3 this week
no commentswrite comment
1 2 3 4 5
3 more votes to show rating
add to favorites
×
Save as Personal and add changes to this tab that will be seen only by you. Learn more ›
×
You can save this tab as Personal to edit and correct it or add notes. All changes will be seen only by you. Learn more »
launch autoscroll
font size
0
reset
guitar tuner
edit
Autoscroll
slow
fast
+/-
esc
set tempo
stop
Author
Difficulty
Saliva - My goodbyes
Album: Every Six Seconds

bass tab

by : doky 2007
taquilleros_de_sudamerica_maroyu_el_grupo_tropical_del_momento@hotmail.com

5-stringed bass
G D A E B

   INTRO
G-|-----------|-----------|
D-|-----------|-----------|
A-|-----------|-----------|
E-|-----------|-----------|
B-|-4---/16---|-12-10-7---|
                                                                              

   VERSO
G-|----------------|--------------------|
D-|----------------|------46------------|
A-|------------64--|---66-------66/9999-|
E-|-----2----------|--------------------|
B-|-444----444-----|-4--------4---------|
        *A*                                                                   

   BREAK
G-|-------|--------------|
D-|-------|--------------|
A-|-------|--------------|
E-|-------|--------------|
B-|-------|-44444444/777-|
    *A* +                                                                      
  
   CORO 1
G-|-------------------------------|----------------------|
D-|-------------------------------|----------------------|
A-|-------------------------------|----------------------|
E-|-77777h9-44444h6---------------|-77777h9-444444666666-|
B-|-----------------444444-222222-|----------------------|
                                                                              

   CORO 2
G-|--------------|
D-|--------------|
A-|--------------|
E-|-2---4--------|
B-|---------4444-|
                                                                              

   MIDDLE
G-|---------------------|
D-|---------------------|
A-|---------------------|
E-|---------------3---3-|
B-|-22-22-22-22-2---2---|
                                                                              
Mando saludos a La Janneth Blanco del QB 2004 que estaba ps con el Dirty Sanchez
harto time, pero se han separado no se porque. les he hecho ver pues con el brujo
Crispin Llanta Llave y me dijo: boda no mas caballero, pero cuidaaaado, un hombre
X se puede aparecer y ahi tienes que acudir a mi para que lo espante. assiiiiii

doky2007
Suggest correction
Creating personal tab
Creating personal tab
You can edit any tab online and save it as your Personal.

You can edit, replace or remove any tab part or add personal notes – all changes will be seen only by you.

Personal tabs can be accessed anytime from any device, even offline.
Learn more »
Give kudos to tab author, rate the tab!
1 2 3 4 5
comments
print report bad tab
guest
You may want to rate the tab now too:
select rating
Wanna post a correction for this tab? Suggest correction