Oops, an error
Loading. Please wait.

Rest In Pieces bass

version 2
version 2

Whole song

Interactive

by Saliva
308 views 1 this week
no commentswrite comment
1 2 3 4 5
3 more votes to show rating
add to favorites
×
Save as Personal and add changes to this tab that will be seen only by you. Learn more ›
×
You can save this tab as Personal to edit and correct it or add notes. All changes will be seen only by you. Learn more »
launch autoscroll
font size
0
reset
guitar tuner
edit
Autoscroll
slow
fast
+/-
esc
set tempo
stop
Author
Difficulty
Saliva - Rest in pieces
Album: Back Into Your System

bass tab

by : doky 2007
taquilleros_de_sudamerica_maroyu_el_grupo_tropical_del_momento@hotmail.com

5-stringed bass
G D A E B

   VERSO
G-|---------------|------------------------------------------*------------|
D-|---------------|------------------------------------------*------------|
A-|---------------|------------------------------------------*------------|
E-|---------------|-6-66-6-666666-1-11-1-111111-2-22-2-222222*22-2-222222-|
B-|-2-22-2-222222-|------------------------------------------*------------|
                                     *A*                                       

G-|------------|---|-----|
D-|------------|---|-----|
A-|------------|---|-----|
E-|------------|---|-----|
B-|-22----2----|---|-----|
                 +   *A*                                                       

   CORO
G-|---------------------|-------------|-------------------------------|
D-|---------------------|-------------|-------------------------------|
A-|---------------------|-------------|-------------------------------|
E-|-6-66-6-66-9-99-9-99-|-------------|-6-66-6-66-9-99-9-99-----------|
B-|---------------------|-7-77-7-77-7-|---------------------7-77-7-77-|
                                                                              

G-|---------------|
D-|---------------|
A-|---------------|
E-|-555555-777777-|
B-|---------------|
                                                                              
 
   FIN
G-|---------------------|---------|
D-|---------------------|---------|
A-|-4-44-4-44-----------|---------|
E-|-----------5555-7777-|---------|
B-|---------------------|-2-------|
                                                                              
Mando salutos al Jooooven Humberto Barrios del QB 2004, que le decian "Chuper", debe ser
como chuper tara o super tara o algo asi, pero el era presidente de la Sociedad Chupistica
QB 2004 hasta que fue derrocado por El Arturo Cabeza. todo por dedicarle la cancion Amigo
Bronco Cabeza el 2003

doky2007

            
            
Suggest correction
Creating personal tab
Creating personal tab
You can edit any tab online and save it as your Personal.

You can edit, replace or remove any tab part or add personal notes – all changes will be seen only by you.

Personal tabs can be accessed anytime from any device, even offline.
Learn more »
Give kudos to tab author, rate the tab!
1 2 3 4 5
comments
print report bad tab
guest
You may want to rate the tab now too:
select rating
Wanna post a correction for this tab? Suggest correction