Oops, an error
Loading. Please wait.

Slide Tab

1,241 views 3 this week
1 commentread comment
1 2 3 4 5
please rate
add to favorites
launch autoscroll
font size
0
reset
how to read this tab
guitar tuner
Tab Pro tools
  • play this tab
  • loop segment
  • change instrument
  • show fretboard
  • metronome
Autoscroll
slow
fast
+/-
esc
set tempo
stop
Contributor
http://www.salmonelladub.com/
New Zealand 
Style: Dub/Reggae
17 Singles/EP's/Albums released


----------------------------------------------------------------------------
			     SLIDE - Salmonella Dub
----------------------------------------------------------------------------
		      From their new Album - One Drop East

Tabbed by: J Montagu
Email: drover_@NOSPAMAThotmail.com

Tuning: EADGBe

e|---7--x-x-7--x--7--x-x-7--x-|
B|o--8--x-x-8--x--8--x-x-8--x-|
G|---9--x-x-9--x--9--x-x-9--x-|
D|---9--x-x-9--x--9--x-x-9--x-|
A|o--7--x-x-7--x--7--x-x-7--x-|
E|---7--x-x-7--x--7--x-x-7--x-|

e|--5--x-x-5--x--7--x-x-7--x--| 
b|--5--x-x-5--x--7--x-x-7--x-o|
g|--5--x-x-5--x--7--x-x-7--x--| Repeat throughout  
D|--7--x-x-7--x--9--x-x-9--x--| whole song except from 
A|--7--x-x-7--x--9--x-x-9--x-o| 4:56 - 5:58 (drum/bass/syth only)
E|--5--x-x-5--x--7--x-x-7--x--|


3:38

Guitar 2 Solo

e|----------------------------------------------|
B|----------------------------------------------|
G|----------------------------------------------|
D|----------------------------------------------| x3
A|-7-7--7-7-9-9-10--9h10--12~---14--12-10-9\-7--|
E|----------------------------------------------|

e|----------------------------------------------|
B|----------------------------------------------|
G|----------------------------------------------|
D|----------------------------------------------| 
A|-7---7-7-7---7-7-7-7-5-7-9--7h9~--------------|
E|----------------------------------------------|  

e|----------------------------------------------|
B|----------------------------------------------|
G|----------------------------------------------|
D|-------------------------.---.----.----.------| 
A|-7---7-7-7---7-7-7-7-5-7-9-7h9--7h9--7h9-9----|
E|----------------------------------------------|


| /  slide up
| \  slide down
| h  hammer-on
| ~  vibrato
| x  Mute note
| .  Staccato 
============================================================================
comments
We did not receive enough feedback on this tab! Please rate:
print report bad tab
1 2 3 4 5
1 comment total.
0 reply
Blackadd-r wrote on March 30 2004, 12:00 am

Big ***up, a typo... I tabbed out the 2nd two lines but pasted them onto the A string instead of the D string. Heres the real one:

Guitar 2 Solo

e|-------------------------------------------|
B|-------------------------------------------|
G|-------------------------------------------|
D|-------------------------------------------| x3
A|-7-7--7-7-9-9-10--9h10--12---14--12-10-9\-7|
E|-------------------------------------------|

e|----------------------------------------------|
B|----------------------------------------------|
G|----------------------------------------------|
D|-7---7-7-7---7-7-7-7-5-7-9--7h9~--------------|
A|----------------------------------------------|
E|----------------------------------------------|

e|----------------------------------------------|
B|----------------------------------------------|
G|----------------------------------------------|
D|-7---7-7-7---7-7-7-7-5-7-9-7h9--7h9--7h9-9----|
A|----------------------------------------------|
E|----------------------------------------------|

I want to post or [tab]
guest
You may want to rate the tab now too:
select rating
Please do not post tabs as comments. Select "correction" instead!