Oops, an error
Loading. Please wait.

Anhelo Bass Tab

68 views 3 this week
no commentswrite comment
1 2 3 4 5
3 more votes to show rating
add to favorites
launch autoscroll
font size
0
reset
guitar tuner
×
Best way to learn
"Anhelo"
Autoscroll
slow
fast
+/-
esc
set tempo
stop
Esta cancion me encanta
pero yo pense que era de adolecentes
pero no importa
Intro
E|------|-----|-----|-3----|-5----|----|
A|--3/5-|-3-1-|-3-5-|---5--|---7--|-5--|
D|------|-----|-----|----5-|----7-|----|
G|------|-----|-----|------|------|----|

E|------|-----|-----|-----|-----|-----|-----|
A|--5-5-|--5--|-3---|---3-|-5---|-3---|-1---|
D|---7--|-5-5-|--5--|-3---|-----|-----|-----|
G|------|-----|---5-|-----|---7-|---5-|---3-|

E|--33-|-55-|----|
A|-----|----|-5--|
D|-----|----|----|
G|-----|----|----|

Yo quiero besar
E|----------|-----|------|-----|-----|----|--------|----|----|----------|
A|--55------|--5--|-3----|---0-|-5-5-|----|-88--8--|--7-|--7-|-------7--|
D|----4h7---|-5-5-|---5--|-3---|--7--|-5--|---8--8-|-7--|-7--|-777-5----|
G|-------77-|-----|----5-|-----|-----|--7-|--------|----|----|----------|

Tan suaves
E|-------|-----|-----|-----|-----|----|--------|-------|------------|
A|--5----|--5--|-3-3-|---3-|-----|----|-88--8--|--7--7-|-------7-5--|
D|----7--|-5-5-|--5--|-3---|--7--|-5--|---8--8-|-7--7--|-777-5------|
G|-----7-|-----|-----|--2--|-7-7-|--7-|--------|-------|------------|

Porque Dios te hizo tan bella
E|------|-----|-----|-----|-----|-----|--------|-------|------------|
A|------|--5--|-3---|--3--|---5-|---5-|-88--8--|--7--7-|-------7-5--| x2
D|---7--|-5-5-|--5--|-3-3-|--7--|-5---|---8--8-|-7--7--|-777-5------|
G|--7-7-|-----|---5-|-----|-7---|--7--|--------|-------|------------|

E|------|-----|-------|---|-----|-----|-----|
A|------|--5--|-3--3--|-0-|-5---|-3---|-1---|
D|---7--|-5-5-|--5--3-|---|-----|-----|-----|
G|--7-7-|-----|-------|---|---7-|---5-|---3-|

E|--33-|-55-|----|
A|-----|----|-5--|
D|-----|----|----|
G|-----|----|----|

Quiero tenerte a mi lado
E|----------|-----|-----|-----|-----|----|--------|----|----|----------|
A|--55------|--5--|-3-3-|---0-|-5-5-|----|-88--8--|--7-|--7-|-------7--|
D|----4h7---|-5-5-|--5--|-3---|--7--|-5--|---8--8-|-7--|-7--|-777-5----|
G|-------77-|-----|-----|-----|-----|--7-|--------|----|----|----------|

Si estar contigo
E|--------|-----|-----|-----|-----|----|--------|-------|------------|
A|--5---5-|--5--|-3-3-|---3-|-----|----|-88--8--|--7--7-|-------7-5--|
D|----7---|-5-5-|--5--|-3---|--7--|-5--|---8--8-|-7--7--|-777-5------|
G|-----7--|-----|-----|--2--|-7-7-|--7-|--------|-------|------------|

Porque Dios te hizo tan bella
E|------|-----|-----|-----|-----|-----|-------|-------|------------|
A|------|--5--|-3-3-|--3--|---5-|---5-|-8--8--|--7--7-|-------7-5--| x2
D|---7--|-5-5-|--5--|-3-3-|--7--|-5---|--8--8-|-7--7--|-777-5------|
G|--7-7-|-----|-----|-----|-7---|--7--|-------|-------|------------|


E|--------|-----|-------|---|
A|--------|--5--|-3--3--|-0-|
D|-----7--|-5-5-|--5--3-|---|
G|--777-7-|-----|-------|---|

Por que Dios te
E|----------|----|-------|------|
A|--5--5-5--|----|-3-----|-3-5--|
D|--------5-|----|---5-3-|------|
G|----7-----|-12-|-------|------|

Por que
E|-------|-----|-----|------|
A|-------|--5--|-3---|--3---| x2
D|----7--|-5-5-|--5--|-3-3--|
G|--77-7-|-----|---5-|------|

E|-------|-----|------|
A|-------|--5--|-5----|
D|----7--|-5-5-|---5--|
G|--77-7-|-----|------|

atte. miauricio gatolar
Suggest correction
Give kudos to tab author, rate the tab!
1 2 3 4 5
comments
print report bad tab
guest
You may want to rate the tab now too:
select rating
Wanna post a correction for this tab? Suggest correction