Oops, an error
Loading. Please wait.

Push It bass

version 1
version 1

Whole song

Interactive

7,953 views 12 this week
4 commentsread comments
1 2 3 4 5
x 3
add to favorites
×
Save as Personal and add changes to this tab that will be seen only by you. Learn more ›
×
You can save this tab as Personal to edit and correct it or add notes. All changes will be seen only by you. Learn more »
launch autoscroll
font size
0
reset
guitar tuner
edit
Autoscroll
slow
fast
+/-
esc
set tempo
stop
Artist: Salt-N-Peppa
Song: Push It
Tuning: Standard


h - hammer


G |------------------------------------3-5-3---|
D |---7-5-7--3-5-----7-5-7--3-5--3-5-3---------|
A |--------------------------------------------| - 3 times
E |--------------------------------------------|


G |------------------------------------3-5-3---|
D |---7-5-7--3-5-----7-5-7--3-5--3-5-3---------|
A |--------------------------------------------| - 3 times
E |--------------------------------------------|


G |-------------------------------------------------------------------------------------|
D |-------------------------------------------------------------------------------------|
A |---------------------------------------------------1-3-1-----------------------------|
E |---5-3-5--1-3-----5-3-5--1-3-----5-3-5--1-3--1-3-1---------5-3-5--1-3--1-3-1-8-7-5---|


G |---------------------------------------------------------------|
D |---------------------------------------------------------------|
A |---------------------------------------------------------------|
E |---5--1h3---3h5--1h3---5-6-8-6---5--1h3----3h5----1h3----5h7---|


G |-------------------------------------------------------------------------------------|
D |-------------------------------------------------------------------------------------|
A |-----------------------------------1-3-1-------------------------------------1-3-1---|
E |---5-3-5--1-3----5-3-5--1-3--1-3-1-----------5-3-5--1-3----5-3-5--1-3--1-3-1---------|


G |--------------------------------------------------|
D |--------------------------------------------------|
A |--------------------------------------------------|
E |---1h3----3h5----1h3----6-8-6-3-5----3h5----1h3---|


G |-------------------------------------------------------------------|
D |-------------------------------------------------------------------|
A |-----------------------------------------------------------1-3-1---|
E |---5--3-5-1-3----5--3-5-1-3----5--3-5-1-3----5--3-5-1-3--1---------|

G |-------------------------------------|
D |-------------------------------------|
A |-------------------------------------|
E |---5--3-5-1-3----5--3-5-1-3--8-7-5---|


G |--------------------------------------|
D |--------------------------------------|
A |--------------------------------------|
E |---5---1h3----3h5---1h3---5-7-5-3-5---|


G |---------------------------------|
D |---------------------------------|
A |---------------------------------|
E |---7-4-1---5---1h3---3h5---1h3---|


That's it, it's correct, there are some places where there is no bass so you have to 
I just had to do this tab because the song is featured in the Nextel commercial which I 
is hilarious, so here it is.

            
            
Suggest correction
Creating personal tab
Creating personal tab
You can edit any tab online and save it as your Personal.

You can edit, replace or remove any tab part or add personal notes – all changes will be seen only by you.

Personal tabs can be accessed anytime from any device, even offline.
Learn more »
Give kudos to tab author, rate the tab!
1 2 3 4 5
comments
print report bad tab
4 comments total. Showing first comments.
+1 reply
RyanZilla 10 Mar 07, 2014 07:50 AM, edited at 12:54 pm

You've made it way more difficult than it needs to be.
A ---------------------------2--3--2----
E -5--0--5--0--3--0--3-------------2

0 reply
quoisme 10 Nov 24, 2014 05:43 PM, edited on August 16 2015, 09:19 pm

First comment by me ever.... Long time listener, first time caller.

Took what you did RyanZilla...G sounds better than the Gb (imho)

A--------------------------2--3--2------
E-5--0--5--0--3--0--3--0------------3---

A-----------------2--0-
E-5--0--5--0--3--------

0 reply
flatwound 1,332 May 31, 2015 04:06 AM

Try this for the intro

G|-------------------4-5-4-----------------|
D|--7---7---5---5-------------7----7----5--|
A|----7---7---7---7-------------7----7-----|
E|-----------------------------------------|

Hope it helps

flatwound

guest
You may want to rate the tab now too:
select rating
Wanna post a correction for this tab? Suggest correction