Oops, an error
Loading. Please wait.

Aventura Diurna Tab

118 views 1 this week
no commentswrite comment
1 2 3 4 5
3 more votes to show rating
add to favorites
launch autoscroll
font size
0
reset
how to read this tab
guitar tuner
Autoscroll
slow
fast
+/-
esc
set tempo
stop
Help us to improve Ultimate-Guitar.com Take our survey!
×
Con este tema empecé a escuchar a Salta la banca
así que no pudo faltar en mi repertorio. Que les sirva :D

INTRO
RIFF
e--10-9-----------10-12-10-9--------------------------12------
B-------10-------------------10--10-10/12-10-12-12/14---14-10-
G-9---------9--9-9--------------------------------------------
D-------------------------------------------------------------
A-------------------------------------------------------------
E-------------------------------------------------------------

e---------------------------------------------
B-12-12p10-10-12/14-12-12/10-12-10------------
G----------------------------------9-9-9-9-9--  x2
D---------------------------------------------
A---------------------------------------------
E---------------------------------------------

ACORDES:
||: A9 F#m D9 E A9 E :|| x2

  A9
Aquella ingenuidad sonroja su vergüenza.
 F#m
Presumí ser domador,

mas preferí ser el león
 D9          E           A9 E
Ante esa hermosa violencia

 A9
Me sacaste a bailar, y quedé emborrachado.
   F#m
Ya no puedo renunciar

Al orgasmo sin final
  D9         E           A9
Que tu piel me ha regalado
 A7
eeeeeee


D9              E    F#m
Muero en tu cuerpo; revivo en él.
            G         E        D9  E
Siento fervientes mis ganas de ser.
A9
Te invito a transpirar
F#m
La magia que inventamos.
D9                E
Siento en mis manos
           A9  E
La felicidad

SOLO
e-----5-5--5-5-----5-5--5-5----------------------------------
B-1/5----------1/5-------------------------10-10/12-10--10-10-
G---------------------------7-6-----6-7-7/9------------------
D-------------------------------7--7-------------------------
A------------------------------------------------------------
E-------------------------------------------------------------

e---------------------------------12-----12-----------------------
B-12/14--10-10-12/14--10-10-12/14---12/14--12/14-12-10-10-10-10-10
G-----------------------------------------------------------------
D-----------------------------------------------------------------
A-----------------------------------------------------------------
E-----------------------------------------------------------------

e-12-12-12-10-10-10-10-------------------------------------------
B-----------------------10---------------10----------------------
G-------------------------9---------9-9----9---------------------
D--------------------------9-9p7-9--9-9-----9--7--9/11--7-7-9/11-
A----------------------------------------------------------------
E----------------------------------------------------------------

e-----------------------------------------------------------
B-----------------------------------------------------------
G-----------------------------------------------------------
D-7-9/11-11/14-14p13p12-11-12-11-12p11----------------------
A-------------------------------------12--------------------
E-----------------------------------------------------------

ACORDES: ||: A9 F#m D9 E A9 E :||x2

A9
No quiero ni pensar en que mi alma carezca
F#m
De ese hermoso cuerpo azul.
Es como un jueves sin Gulp,
D9        E            A9  E
Como un sábado sin Reina.

A9
Pelada tu dulzura, hermosa asignatura.
F#m
Hoy la luna se enroscó,
Me miró mal, me celó
D9       E               A9  A7
Por nuestra aventura diurna.

D9            E     F#m
Muero en tu cuerpo; revivo en él.
           G             E       A9  E
Siento fervientes mis ganas de ser.
A9
Te invito a transpirar
F#m
La magia que inventamos.
D9                 E
Siento en mis manos
            A9 A7
La felicidad.

D9            E     F#m
Muero en tu cuerpo; revivo en él.
           G             E       A9  E
Siento fervientes mis ganas de ser.
A9
Te invito a transpirar
F#m
La magia que inventamos.
D9                 E
Siento en mis manos
LA felicidad.

FINAL

e--10-9-----------10-12-10-9--------------------------12------
B-------10-------------------10--10-10/12-10-12-12/14---14-10-
G-9---------9--9-9--------------------------------------------
D-------------------------------------------------------------
A-------------------------------------------------------------
E-------------------------------------------------------------

e-------------------------------------------9----9----9-10-9----
B-12-12p10-10-12/14-12-12/10-12-10------------12----10----------
G----------------------------------9-9-9-9-9--------------------
D---------------------------------------------------------------
A---------------------------------------------------------------
E---------------------------------------------------------------

e-------------------------9------12/14-12-14-12---12------9---
B-12p10h12-10-------10-12--12-10---------------14----10-12----
G------------9--9-12------------------------------------------
D-------------------------------------------------------------
A-------------------------------------------------------------
E-------------------------------------------------------------


e-10-9--------------------9---12--------------------------------
B-----12-10------10-12-10---10----------------------------------
G-----------9-11------------------------------------------------
D---------------------------------12-12-11-11-9-9--9-11-9-11p9--
A---------------------------------------------------------------
E---------------------------------------------------------------

e-----------------------------------------------------------------
B-----------------------------------------------------------------
G-----------------------------------------------------------------
D---------9-12-12-11-9--------------------11-9-11p9---------------
A-12--9-12------------12-11-12--9-11p9-------------12-12-12-9-----
E-------------------------------------12--------------------------

e-----------------------------------------------------------------
B-----------------------------------------------------------------
G--------------------------------------------12-12-12-14-11-9-----
D--------------------9---11-9--9-9-11-9---------------------------
A-11h12p11-9-12-12-12-12-----12--------12-10----------------------
E-----------------------------------------------------------------

e-----------------------------------------------------------------
B-----------------------------------------------------------------
G-----------------------------------------------------------------
D-9-11-9-11p9-----------12-12-11-9----------------------11-9-11p9-
A------------12--9-11-12----------12-11-12--9-11p9----------------
E-------------------------------------------------12--12----------

e----------------------------------------------------------------
B----------------------------------------------------------------
G----------------------------------------------------------------
D---------------------------------9----11-9-7/9-9-11-9-----------
A-12--12-12-9-11h12p11-9--12-12-12-12-----------------12---------
E----------------------------------------------------------------

ACORDES:
A9 F#m D E A9 E
A9 F#m D E A9 A7
D E F#m G E D E
A9 F#m D E A9 A7
D E F#m G E D E
A9 F#m D E A9 E
A

Muchas gracias por ver y espero se entienda.
Vean tambien mi tablatura de Tren al Eden :D
Lauta_SLB
Suggest correction
Give kudos to tab author, rate the tab!
1 2 3 4 5
comments
print report bad tab
guest
You may want to rate the tab now too:
select rating
Wanna post a correction for this tab? Suggest correction