Oops, an error
Loading. Please wait.

Hay Que Saber Tab

28 views 1 this week
no commentswrite comment
1 2 3 4 5
3 more votes to show rating
add to favorites
×
Save as Personal and add changes to this tab that will be seen only by you. Learn more ›
×
You can save this tab as Personal to edit and correct it or add notes. All changes will be seen only by you. Learn more »
save as personal
new!
launch autoscroll
font size
0
reset
how to read this tab
guitar tuner
Autoscroll
slow
fast
+/-
esc
set tempo
stop
                 G                Bm
E||------------|-------3----3-2-|-0----------0---|
B||------------|-0--3-----------|---3----3-----3-|
G||--------0-2-|----------------|------4---------|
D||------------|----------------|----------------|
A||------------|----------------|----------------|
E||------------|----------------|----------------|

    Am     Am/G     D
E||---------------|---------------|
B||-1--0----------|---------------|
G||------2-0--2-0-|-----------0-2-|
D||---------------|-4--2--0-------|
A||---------------|---------------|
E||---------------|---------------|

    G                Bm               Am     Am/G
E||-------3----3-2-|-0----------0---|---------------|
B||-0--3-----------|---3----3-----3-|-1--0----------|
G||----------------|------4---------|------2-0--2-0-|
D||----------------|----------------|---------------|
A||----------------|----------------|---------------|
E||----------------|----------------|---------------|

 D                 G    D
E||-----------------|------2---|
B||-----------------|------3---|
G||-----------------|-0----2---|
D||-4---------------|-0----0---|
A||-5---3---2---0---|-2--------|
E||-----------------|-3--------|
Suggest correction
Give kudos to tab author, rate the tab!
1 2 3 4 5
comments
print report bad tab
guest
Wanna post a correction for this tab? Suggest correction