Oops, an error
Loading. Please wait.

Heidi Tab

121 views 3 this week
no commentswrite comment
1 2 3 4 5
3 more votes to show rating
add to favorites
×
Save as Personal and add changes to this tab that will be seen only by you. Learn more ›
×
You can save this tab as Personal to edit and correct it or add notes. All changes will be seen only by you. Learn more »
save as personal
new!
launch autoscroll
font size
0
reset
how to read this tab
guitar tuner
Autoscroll
slow
fast
+/-
esc
set tempo
stop
Riff 1
------------------------
------------------------
--3-4-6-----3-4-6-------   (x2)
-------5-4-------5-4-2--
------------------------
------------------------

Riff 2

----------------------------2-2-
---------4(e)-4(e)--------4-2-2-
--3-4-6-------------3-4-6-------
--------------------------------
--------------------------------
--------------------------------

Riff 3
                                   A  A6
-----------------------------------0--3-
----------4(e)-4(e)-------5-4-2-0--2--2-
--3-4-6-------------3-4-6----------2--2-
-----------------------------------2--2-
-----------------------------------0--0-
----------------------------------------


Intro: Riff 1


F#5        G5  F#5 C5 B5          F#5
Twittea infiernos detrás del cascarón,
  G5 F#5  E5  G5F#5E5
mientras jadea, su pseudo rebelión.


Riff 1


Riff 1
Acá el problema es que te descuidas,
Riff 1
y la más Heidi parece satanás,
Riff 2
Se afila los colmillos,
dulces, de cotillón
Riff 3
y exhibe sus nudillos,
dureza, tiesa de cartón.

D-A#

D
Y a vos te entumece el cuerpo un hálito de nieve,
A#
propio de la podredumbre que genera la costumbre,
D
Popular ante quimeras, congénitas gomeras
A#
de personas sin cosquillas, Vidas de pacotilla
A
que hallarán el escarmiento
                                    G
que enloquece en el momento del ardor,
            D5  A5       G5            F#
Cuando aparecen los espejos del interior.

Solo saxo: F#

Riff 1
Debo calmarme, si algo me inquieta mal,
Riff 1
Quiero cuidarte y esto me hace tragar
Riff 2
veneno de impotencia
que pasma mi sudor.
Riff 3
Yo me debo a tu aliento,
pócima brava de estupor.


D
Que me cubre o debería exonerarme de apatías,
A#
que usan como espada un aluvión de fantochadas,
D
Vos sabes lo que me cuesta refugiarme en la floresta,
A#
que abonada con su mierda, permitiendo que florezca.
            A
Y es que llevo una barriada milongueando en las entrañas,
            G
Ni la idiocia la sacude, me traslada hasta la nube,
            D5  A5       G5            F#
de esa misma estela blanda de estupidez.


Final:

------------------------
------------------------
--3-4-6-----3-4-6-------   (x2)
-------5-4-------5-4-2--
------------------------
------------------------


------------------------
--2-3-5----2-3-5--------
-------4-3------4-3-0---   (x2)
------------------------
------------------------
------------------------

------------------------
--4-5-6-----4-5-6-------
-------5-4-------5-4-2--   (x2)
------------------------
------------------------
------------------------

G#m-D#5-E5-F#5-C5-B5-A5-G#5

 (el E5 y F#5 hacerlos con tonica en trastes 7 y 9 5ta cuerda)
Suggest correction
Give kudos to tab author, rate the tab!
1 2 3 4 5
comments
print report bad tab
guest
Wanna post a correction for this tab? Suggest correction