Oops, an error
Loading. Please wait.

Tren Al Eden Tab

652 views 9 this week
no commentswrite comment
1 2 3 4 5
3 more votes to show rating
add to favorites
launch autoscroll
font size
0
reset
how to read this tab
guitar tuner
×
Best way to learn
"Tren Al Eden"
Autoscroll
slow
fast
+/-
esc
set tempo
stop
Hay dos versiones de este tema (Una es la del demo y la otra
del disco Ya no somos 2 ahora) En el demo los riffs los hace
la guitarra y en el disco el saxo. Esta transcripción la hice
con una amiga mezclando los riffs que mas nos gustaban de cada instrumento
Espero que les sirva.

INTRO:
RIFF (Este es el que hace la viola en el demo)

e  --------------------------------------------
B  --------------------------------------------
G  --------------------------------------------   x2
D  ----------2h3p2-------------3p2---0---------
A  --3---3-----------------3-3-----------------
E  --------------------3-----------------------

ACORDES:

||: C    G   Dm :|| x2


C           G                          Dm
Noche explotable del mes de Diciembre.
C        G                       Dm
Y el verano asomando su vientre.
C          G                        Dm
Un ego sobrevolando la atmósfera.
        C          G          F
y la prudencia dentro de una bóveda.


Am      G           Dm
Una histeria innecesaria,
     G            Am
así como descabellada,
       Em           F      Fm
abandoné cuando te vi.
Am       G           Dm
Sentí estragos en el pecho,
         G         Am
del más loco frenesí.
     Em              F   Fm
Abundancia de promesas,
Em     Dm          Am
y una súplica de ayuda
         F           G
para ir juntos a la luna.


C     F           G
Pasional como sutil
         C          F             G
me arrebataste el cielo y lo adornaste.
           Em            F
Y con el tiempo me enseñaste
           C                 F                G
Qué es el amor, y que en la cama no hay restricción.
Dm         G            Am
Hoy sé que no debe existir

e ----5-5-5-3-1----------------
B -----------------------------
G -----------------------------
D -----------------------------
A -----------------------------
E -----------------------------

Em                F
placer como admirarte reir.
              C       G                 F Fm C
Nunca va a haber otra mujer que me ame así.

RIFF: (Este lo hace el saxo en el disco)
e -------------------------------------------------
B --------5h6p5-6/8--------6p5---------------5-5br-
G -5--5----------------5-5------7-----5--7---------
D -------------------------------------------------
A -------------------------------------------------
E -------------------------------------------------

e ------------------------------------
B ------------5h6p5---6/8------6p5----
G --8--5-5--5-------------5-5-------8-
D ------------------------------------
A ------------------------------------
E ------------------------------------


e -----------------------5------------------------
B --------5-6-5-----------------------------------
G --5-8----------8-5------------------------------
D ------------------------------------------------
A ------------------------------------------------
E ------------------------------------------------

ACORDES:
C G Dm x 2


Am         G           Dm
Si ves que hago todo a prisa
      G           Am
vas a ver una sonrisa
         Em           F      Fm
cuando esté por concluir.
Am       G              Dm
Lo hago para estar más tiempo
         G          Am
donde siempre soy feliz:
         Em              F   Fm
en tu espalda, que este día,
Em     Dm           Am
ha de ser andén del tren
         F              G
que me lleva hasta el edén.


C     F          G
Y yo voy a sonreir
             C            F                G
mientras las sábanas que cubren nuestros cuerpos.
        Em            F
no dejen escapar el fuego
              C               F                G
que se encendió por nuestras pieles haciendo fricción.
Dm    G            Am
Arraigados de pasión:

e ----5-5-5-3-1-----------------
B -------------------------------
G --------------------------------
D -- -----------------------------
A --------------------------------
E  --------------------------------

     E           F
tendré que enterrarme en el sol
         C       G          F Fm C
para volver a sentir ese calor.

FINAL:
RIFF

e-------------------------------------------
B-5---3---3-3/5-------------5-6-5-----------
G-------5-------5-------5-7-------7-5-------
D-------------------6-7-------------------5-
A-------------------------------------6-7---
E-------------------------------------------

e -----------------------------8--------8-
B -------------------6---5-6-8----5-6-8---
G ----------------------------------------
D ------5-7--5-5--------------------------
A --6-7------------8----------------------
E ----------------------------------------

e-8----------------------------------------
B---5-6-8-6-5-6-------5-5-----6-5----6h5---
G-----------------5-7-----5--------7-----5-
D------------------------------------------
A------------------------------------------
E------------------------------------------

e ------------5-7-5--8-7-5-5---8-7-8-10-8-7--
B ------5-6-8--------------------------------
G --5-7--------------------------------------
D -------------------------------------------
A -------------------------------------------
E -------------------------------------------


e-----------------5----------------------------------------------
B--8-6-5-6----8-8---8-5-6-8-6-5-----6-5----------5---------------
G-------------------------------5-------7-5--7-7---5-------------
D----------------------------------------------------------------
A----------------------------------------------------------------
E----------------------------------------------------------------

ACORDES:

||:  C  G  F  :||x2
Am G
C G F
C (Tambien se puede terminar en  C7 para generar tension)

Espero que les haya servido y lo mejor manera de aprender es escuchando
y tocando arriba (Frase de un profe mio de musica)
Dedicado a Soffy que siempre me banco en todas y me ayudo a sacarla.
Suggest correction
Give kudos to tab author, rate the tab!
1 2 3 4 5
comments
print report bad tab
guest
You may want to rate the tab now too:
select rating
Wanna post a correction for this tab? Suggest correction