Oops, an error
Loading. Please wait.

Vals Para Jorge Tab

13 views 1 this week
no commentswrite comment
1 2 3 4 5
3 more votes to show rating
add to favorites
launch autoscroll
font size
0
reset
how to read this tab
guitar tuner
Autoscroll
slow
fast
+/-
esc
set tempo
stop
Help us to improve Ultimate-Guitar.com Take our survey!
×
Durante la canción juega mucho con las séptimas asique fijense ustedes
masomenos como es escuchando la cancion y tocando encima...
Quizas le faltan 2 boludeces pero dentro de todo supongo que esta bien...

Intro:

  E                         A
e----0-0---0-0----0-0------|---0-0---0-0---0-0--------|
B----0-0---0-0----0-0------|---2-2---2-2---2-2--------|
G----1-1---1-1----1-1------|---2-2---2-2---2-2--------|
D--2------------2----------|-------2------------------|
A--------2------------2----|-0-----------0-----0------|
E-----------------------2-4|---------------------4-2--|
  E                         A
e----0-0---0-0----0-0------|---0-0---0-0---0-0---0-0--|
B----0-0---0-0----0-0------|---2-2---2-2---2-2---2-2--|
G----1-1---1-1----1-1------|---2-2---2-2---2-2---2-2--|
D--------------------------|-------2-----------2------|
A--------2------------2----|-0-----------0------------|
E--0------------0-------2-4|--------------------------|
  B7                 A              B7
e----2-2----2-2----|---0-0---0-0---|----2-2----2-2----|
B----0-0----0-0----|---2-2---2-2---|----0-0----0-0----|
G----2-2----2-2----|---2-2---2-2---|----2-2----2-2----|
D---------1--------|-------2-------|---------1--------|
A--2---------------|-0-------------|-2----------------|
E------------------|---------------|------------------|
 D                                         E
e-----2-2------2-2------2-2----2----------|---0-------|
B-----3-3------3-3------3-3----3---2--0---|---0-------|
G-----2-2------2-2------2-2----2---1--0---|---1-------|
D--0--------0--------0---------0----------|---2-------|
A-----------------------------------------|---2-------|
E-----------------------------------------|---0-------|


Acompañamiento de la harmonica:
E-A-E-A-B7-A-B7-D-E


E
He de tener el placer
     A-A7-A
de haber conocido a la niña
E
 que ni el poeta más elocuente
  A-A7-A-A7
hubiera podido crear.
B7               A-A7
 Y he tenido el privilegio
B7                 D           E
 de someterme a su sortilegio.

E
He oído alguna vez
        A-A7-A-A7
que el tiempo de nuestros relojes.
E
 No es el mismo al de nuestras almas
A-A7-A-A7
 y pude ver su verdad.
B7             A-A7
 Un rato con esta mujer
      B7    D                  B
Es un siglo  en el mismísimo edén.

G#m                C#m
 Y he de seguir por estos días
   G#m               A*          A*-G#m-F#m
la pluma de Borges y su teoría
F#m                B
de nuestro paso por esta vida.

A-A7         E
 No existen más que momentos.
A-A7                  E
 Están los malos, y están los buenos.
C#m                    G#m
Y entre los brazos de este ser alado
A                 G#m  A                 E
pude sentir la alegría caminando por mis manos.
F#m                   E
Con la ingenuidad de mi voluntad
F#m              A*               B*     E
Voy a agradecerle todo lo que ha logrado.

E
Bendita sea mi flor
A-A7
que no distingue estación.
B-B7      A-A7          E
para exhibir su resplandor.
         G#m
Bendita sea esta flor.
       C#m
Esta flor de tez morena
G#m             C#m
que calma mis penas
G#m            A*
y el alma me llena
                      B*
con sólo destellos de su corazón.

Y termina haciendo: E-A-B-A-E

    A*         B*
e|---5---|  e|---7---|
B|---5---|  B|---7---|
G|---6---|  G|---8---|
D|---7---|  D|---9---|
A|---7---|  A|---9---|
E|---5---|  E|---7---|
Suggest correction
Give kudos to tab author, rate the tab!
1 2 3 4 5
comments
print report bad tab
guest
You may want to rate the tab now too:
select rating
Wanna post a correction for this tab? Suggest correction