Oops, an error
Loading. Please wait.

Junges Blut bass

10 views 1 this week
no commentswrite comment
1 2 3 4 5
3 more votes to show rating
add to favorites
×
Save as Personal and add changes to this tab that will be seen only by you. Learn more ›
×
You can save this tab as Personal to edit and correct it or add notes. All changes will be seen only by you. Learn more »
launch autoscroll
font size
0
reset
guitar tuner
edit
Autoscroll
slow
fast
+/-
esc
set tempo
stop
Author
Difficulty
[Intro]
G|----------------|
D|----------------|
A|0-0-0-0-0-0-0-0-| 8x
E|----------------|

[Verse I]
G|--------------------------------|--------------------------------|--------------------------------|
D|--------------------------------|--------------------------------|--------------------------------|
A|0---0---0---0-0---0-0---0-0-0-0-|5---5---5---5-3---3-3---3-3-3-3-|0---0---0---0-0---0-0---0-0-0-0-|
E|--------------------------------|--------------------------------|--------------------------------|

G|--------------------------------|--------------------------------|--------------------------------|
D|--------------------------------|--------------------------------|--------------------------------|
A|--------------0---0-0---0-0-0-0-|0---0---0---0-0---0-0---0-0-0-0-|5---5---5---5-3---3-3-3-3-3-3-3-|
E|3---3---3---3-------------------|--------------------------------|--------------------------------|

G|--------------------------------|--------------------------------|
D|--------------------------------|--------------------------------|
A|0---0---0---0-0---0-0---0-0-0-0-|--------------0---0-0-0-0-0-0-0-|
E|--------------------------------|3---3---3---3-------------------|

[Chorus I]
G|--------------------------------|--------------------------------|--------------------------------|
D|--------------------------------|--------------------------------|--------------------------------|
A|0---0---0---0-0---0-0---0-0-0-0-|5---5---5---5-3---3-3-3-3-3-3-3-|0---0---0---0-0---0-0-0-0-0-0-0-|
E|--------------------------------|--------------------------------|--------------------------------|

G|--------------------------------|
D|--------------------------------|
A|--------------0---0-0---0-0-0-0-| 2x
E|3---3---3---3-------------------|

[Interlude]
G|--------------------------------|--------------------------------|--------------------------------|
D|--------------------------------|--------------------------------|--------------------------------|
A|0---0---0---0-0---0-0---0-0-0-0-|5---5---5---5-3---3-3-3-3-3-3-3-|0---0---0---0-0---0-0-0-0-0-0-0-|
E|--------------------------------|--------------------------------|--------------------------------|

G|--------------------------------|
D|--------------------------------|
A|--------------0---0-0---0-0-0-0-| 2x
E|3---3---3---3-------------------|

[Verse II]
G|--------------------------------|--------------------------------|--------------------------------|
D|--------------------------------|--------------------------------|--------------------------------|
A|0---0---0---0-0---0-0---0-0-0-0-|5---5---5---5-3---3-3---3-3-3-3-|0---0---0---0-0---0-0---0-0-0-0-|
E|--------------------------------|--------------------------------|--------------------------------|

G|--------------------------------|--------------------------------|--------------------------------|
D|--------------------------------|--------------------------------|--------------------------------|
A|--------------0---0-0---0-0-0-0-|0---0---0---0-0---0-0---0-0-0-0-|5---5---5---5-3---3-3-3-3-3-3-3-|
E|3---3---3---3-------------------|--------------------------------|--------------------------------|

G|--------------------------------|--------------------------------|
D|--------------------------------|--------------------------------|
A|0---0---0---0-0---0-0---0-0-0-0-|--------------0---0-0-0-0-0-0-0-|
E|--------------------------------|3---3---3---3-------------------|

[Chorus II]
G|--------------------------------|--------------------------------|--------------------------------|
D|--------------------------------|--------------------------------|--------------------------------|
A|0---0---0---0-0---0-0---0-0-0-0-|5---5---5---5-3---3-3-3-3-3-3-3-|0---0---0---0-0---0-0-0-0-0-0-0-|
E|--------------------------------|--------------------------------|--------------------------------|

G|--------------------------------|
D|--------------------------------|
A|--------------0---0-0---0-0-0-0-| 2x
E|3---3---3---3-------------------|

[Interlude]
G|--------------------------------|--------------------------------|--------------------------------|
D|--------------------------------|--------------------------------|--------------------------------|
A|0---0---0---0-0---0-0---0-0-0-0-|5---5---5---5-3---3-3-3-3-3-3-3-|0---0---0---0-0---0-0-0-0-0-0-0-|
E|--------------------------------|--------------------------------|--------------------------------|

G|--------------------------------|
D|--------------------------------|
A|--------------0---0-0---0-0-0-0-| 2x
E|3---3---3---3-------------------|

[Verse III]
G|--------------------------------|--------------------------------|--------------------------------|
D|--------------------------------|--------------------------------|--------------------------------|
A|0---0---0---0-0---0-0---0-0-0-0-|5---5---5---5-3---3-3---3-3-3-3-|0---0---0---0-0---0-0---0-0-0-0-|
E|--------------------------------|--------------------------------|--------------------------------|

G|--------------------------------|--------------------------------|--------------------------------|
D|--------------------------------|--------------------------------|--------------------------------|
A|--------------0---0-0---0-0-0-0-|0---0---0---0-0---0-0---0-0-0-0-|5---5---5---5-3---3-3-3-3-3-3-3-|
E|3---3---3---3-------------------|--------------------------------|--------------------------------|

G|--------------------------------|--------------------------------|
D|--------------------------------|--------------------------------|
A|0---0---0---0-0---0-0---0-0-0-0-|--------------0---0-0-0-0-0-0-0-|
E|--------------------------------|3---3---3---3-------------------|

[Solo]
G|--------------------------------|--------------------------------|--------------------------------|
D|0---0---0---0-0---0-0-0-0-0-0-0-|--------------------------------|0---0---0---0-0---0-0-0-0-0-0-0-|
A|--------------------------------|1---1---1---1-1---1-1-1-1-1-1-1-|--------------------------------|
E|--------------------------------|--------------------------------|--------------------------------|

G|--------------------------------|
D|--------------------------------|
A|--------------------------------| 2x
E|3---3---3---3-3---3-3-3-3-3-3-3-|

G|--------------------------------|
D|--------------------------------|
A|--------------------------------| 2x
E|3---3---3---3-3---3-3-3-3-3-3-3-|

[Interlude]
G|--------------------------------|--------------------------------|--------------------------------|
D|--------------------------------|--------------------------------|--------------------------------|
A|0---0---0---0-0---0-0-0-0-0-0-0-|5---5---5---5-3---3-3-3-3-3-3-3-|0---0---0---0-0---0-0-0-0-0-0-0-|
E|--------------------------------|--------------------------------|--------------------------------|

G|--------------------------------|
D|--------------------------------|
A|--------------0---0-0-0-0-0-0-0-| 2x
E|3---3---3---3-------------------|

[Verse IV]
G|--------------------------------|--------------------------------|--------------------------------|
D|--------------------------------|--------------------------------|--------------------------------|
A|0---0---0---0-0---0-0---0-0-0-0-|5---5---5---5-3---3-3---3-3-3-3-|0---0---0---0-0---0-0---0-0-0-0-|
E|--------------------------------|--------------------------------|--------------------------------|

G|--------------------------------|--------------------------------|--------------------------------|
D|--------------------------------|--------------------------------|--------------------------------|
A|--------------0---0-0---0-0-0-0-|0---0---0---0-0---0-0---0-0-0-0-|5---5---5---5-3---3-3-3-3-3-3-3-|
E|3---3---3---3-------------------|--------------------------------|--------------------------------|

G|--------------------------------|--------------------------------|
D|--------------------------------|--------------------------------|
A|0---0---0---0-0---0-0---0-0-0-0-|--------------0---0-0-0-0-0-0-0-|
E|--------------------------------|3---3---3---3-------------------|

[Chorus III]
G|--------------------------------|--------------------------------|--------------------------------|
D|--------------------------------|--------------------------------|--------------------------------|
A|0---0---0---0-0---0-0---0-0-0-0-|5---5---5---5-3---3-3-3-3-3-3-3-|0---0---0---0-0---0-0-0-0-0-0-0-|
E|--------------------------------|--------------------------------|--------------------------------|

G|--------------------------------|
D|--------------------------------|
A|--------------0---0-0---0-0-0-0-| 4x
E|3---3---3---3-------------------|

[Outro]
G|----------------|
D|----------------|
A|0-0-0-0-0-0-0-0-| 8x
E|----------------|

            
            
Suggest correction
Creating personal tab
Creating personal tab
You can edit any tab online and save it as your Personal.

You can edit, replace or remove any tab part or add personal notes – all changes will be seen only by you.

Personal tabs can be accessed anytime from any device, even offline.
Learn more »
Give kudos to tab author, rate the tab!
1 2 3 4 5
comments
print report bad tab
guest
You may want to rate the tab now too:
select rating
Wanna post a correction for this tab? Suggest correction