Oops, an error
Loading. Please wait.

Cooltural Tab

13 views 1 this week
no commentswrite comment
1 2 3 4 5
3 more votes to show rating
add to favorites
launch autoscroll
font size
0
reset
how to read this tab
guitar tuner
Autoscroll
slow
fast
+/-
esc
set tempo
stop
Help us to improve Ultimate-Guitar.com Take our survey!
×
Había buscado alguna canción salvador psihas
y no e encontrado ninguna aquí en la cuerda
Por lo que decidí enviar este tab. De esta excelente canción
Creo que a cualquiera que le guste la trova conoce
a este artista y aquí lo tienen una de sus muy conocidas canciones.
Cuando escuche por primera vez esta canción
con un trovador no pare de reír por lo que decía
pues me sentí muy familiarizado con la letra
Pues no se si recuerden el tiempo que estuvo de
moda nicho donde en cada casa o automóvil se
escuchaban sus canciones y no es que cante mal
hay que admitir que estaba entonado el muchacho
pero la música que esta echa con el corazón y para expresar
sentimientos e ideas  no se vende se da conocer al
publico que busca mas y no por que firmaste con una gran disquera
vas a vender  una canción de un artista
que a luchado toda su vida por llegar a los oídos
de muchas personas así que aquí tenemos esta canción
que cuando yo cantaba y tocaba la de ojala de Silvio Rodríguez
mas de una ves me respondieron la de nicho hinosa  y bueno?
espero que les guste.

Capo en el primer traste se escucha mejor.

dedicada para rodos los chicos cool
que les guta la trova y la one, two 3
y esta cancioncita que deci a si...

INTRO?

   D    A      G   D4/A   D    A    G      A
E--------------3--------------------3----------------|
A--------0----------0----------0------------0--------|
D--0----------------------0-----------------2--------|
G---2-----2-----0----2-----2----2----0------2--------|
B----3-----2-----3----3-----3----2----3-----2--------|
e-----2-----0-----3----3-----2----0----3----0--------|


   D         A           G             A
E------------------------3---------------------------|
A------------0--------------------------0------------|
D--0-------------------------------------------------|
G---2---------2-----------0--------------2-----------|
B----3---------2-----------3--------------2----------|
e-----2---------0-----------3--------------0---------|
 Quiero trova, dame trova, humm la trova quiero más


   D         A           G              A
E------------------------3---------------------------|
A------------0--------------------------0------------|
D-0--------------------------------------------------|
G---2---------2-----------0--------------2-----------|
B----3---------2-----------3--------------2----------|
e-----2---------0-----------3--------------0---------|
 Me fascina, me deleita y me gusta imaginar

  D/B     G       A
E--------3--------------------|
A-2---------------0-----------|
D-----------------------------|
G---0------0-------2----------|
B----3------3-------2---------|
e-----3------3-------0--------|
  Que  soy  alguien especial

  D   D/B      G       A
E--------------3--------------------|
A------2---------------0------------|
D--0--------------------------------|
G---2----0-------0-------2----------|
B----3----3-------3-------2---------|
e-----2----3-------3-------0--------|
   Entre cool  y  cultural

   D          A   G  A
E-----------------3--------|
A-------------0-------0----|
D--0-----------------------|
G---2----------2---0----2--|
B---3----------2---3----2--|
e---2----------0---3----0--|
  Y que más da.

   D          A   G  A
E-----------------3--------|
A-------------0-------0----|
D--0-----------------------|
G---2----------2---0----2--|
B---3----------2---3----2--|
e---2----------0---3----0--|
Lo que digan los demás

   D          A   G  A
E--------------------3--------|
A-------------0----------0----|
D--0--------------------------|
G---2----------2------0----2--|
B---3----------2------3----2--|
e---2----------0------3----0--|
si la trova es lo que va pegar

   D          A   G  A
E--------------------3--------|
A-------------0----------0----|
D--0--------------------------|
G---2----------2------0----2--|
B---3----------2------3----2--|
e---2----------0------3----0--|
(Estoy seguro te va gustar no)
 D            A          G               A
Quiero trova dame trova, humm la trova quiero mas
 D          A           G             A
Me fascina me deleita y me gustaría pensar

Arpegiado
D    A    G                  D4/A
Que estoy donde siempre quise estar
D     A     G     A
Entre gente trova musical

   D          A   G  A
E-----------------3--------|
A-------------0-------0----|
D--0-----------------------|
G---2----------2---0----2--|
B---3----------2---3----2--|
e---2----------0---3----0--|
Y que más da


   D          A   G  A
E-----------------3--------|
A-------------0-------0----|
D--0-----------------------|
G---2----------2---0----2--|
B---3----------2---3----2--|
e---2----------0---3----0--|
Si la escuela no la fui acabar

  D          A       G  A
E--------------------3--------|
A-------------0----------0----|
D--0--------------------------|
G---2----------2------0----2--|
B---3----------2------3----2--|
e---2----------0------3----0--|
Por que me gusta ojala.

INTRO
   D    A       G   A
E---------------3--------------------|
A--------0-----------0---------------|
D--0-------2-----------2-------------|
G---2-------2-----0------2-----------|
B----3-------2-----3-------2---------|
e-----2-------3-----3--------0-------|

D            A            G                A
Quiero trova, dame trova, humm la trova quiero más
D           A          G
Me fascina, me deleita y me gusta

    A
E--------------------------------|
A---0-----------0--0--0--0-------|
D-----2----2----2--2--4--2-------|
G------2--2----------------------|
B-------2------------------------|
e--------------------------------|
  Imaginar

(Cambia de ritmo a bar. Blues)

 1
Que soy un tipo, bien educado
No como otros que andan por ahí

 2
De esos nacos desubicados

Se queden con su TRI
Y cántame la de coincidíiir

E--------------------------|
A--------------------------|
D--------------------------|
G--0-2-0-2-----------------|
b----------0-1-3-5---------|
e------------------2-3-----|

 D            A          G              A
Quiero trova dame trova, humm la trova quiero mas
 D          A          G              A
Me fascina me deleita y me gustaría pensar


  D/B     G        A
E---------3--------------------|
A-2----------------0-----------|
D------------------------------|
G---0-------0-------2----------|
B----3-------3-------2---------|
e-----3-------3-------0--------|
  Que   hoy me van a tocar

  D   D/B      G       A
E-------------3--------------------|
A------2--------------0------------|
D--0-------------------------------|
G---2----0------0-------2----------|
B----3----3------3-------2---------|
e-----2----3------3-------0--------|
   Lo   que vine escuchar

   D          A   G  A
E-----------------3--------|
A-------------0-------0----|
D--0-----------------------|
G---2----------2---0----2--|
B---3----------2---3----2--|
e---2----------0---3----0--|
  La de ojala

  D              Dmaj7        D7            D6
E----------------------------------------------------------|
A----------------------------------------------------------|
D-0--------------0------------0-------------0--------------|
G--10-------10----10-----10-----10-----10-----10------10---|
B----10---10--------10-10--------10--10---------10--10-----|
e------10-------------9------------8--------------7--------|
                                               Pero párale
  D              Dmaj7
E-----------------------------|
A-----------------------------|
D-0--------------0------------|
G--10-------10----10-----10---|
B----10---10--------10-10-----|
e------10-------------9-------|
 Párale, párale que te pasa wey  Si así no la toca nicho

   D    A        G      A           D
E----------------3---------------------|
A------0----------------0--------------|
D--0--------------------------------0--|
G---2---2---------0-------2----------2-|
B---3---2---------3-------2----------3-|
e---2---0---------3-------0----------2-|
      Y la trova es lo que va a pegar

    A        G        A       D
E------------3--------------------------3---------|
A--0------------------0------------0---------0----|
D-----------------------------0-------------------|
G---2----------0-------2-------2----2----0---2----|
B---2----------3-------2-------3----2----3---2----|
e---0----------3-------0-------2----0----3---0----|
 Y eso me hace súper cooltural

 D            A          G              A
Quiero trova, dame trova, humm la trova quiero más,
 D          A          G              A
Me fascina, me deleita y me gusta imaginar,

  D/B     G        A
E---------3--------------------|
A-2----------------0-----------|
D------------------------------|
G---0-------0-------2----------|
B----3-------3-------2---------|
e-----3-------3-------0--------|
  Que soy algo   especial

  D   D/B      G       A
E-------------3------------------|
A------2------------0------------|
D--0-----------------------------|
G---2----0------0-----2----------|
B----3----3------3-----2---------|
e-----2----3------3-----0--------|
  Entre cool  y  cultural

   D          A   G  A
E-----------------3--------|
A-------------0-------0----|
D--0-----------------------|
G---2----------2---0----2--|
B---3----------2---3----2--|
e---2----------0---3----0--|
  Y que más da.

   D          A   G  A
E-----------------3--------|
A-------------0-------0----|
D--0-----------------------|
G---2----------2---0----2--|
B---3----------2---3----2--|
e---2----------0---3----0--|
Si la escuela no la fui acabar,

  D          A       G  A
E--------------------3--------|
A-------------0----------0----|
D--0--------------------------|
G---2----------2------0----2--|
B---3----------2------3----2--|
e---2----------0------3----0--|
Por que me gusta ojala.


   D          A      G  A
E--------------------3--------|
A-------------0----------0----|
D--0--------------------------|
G---2----------2------0----2--|
B---3----------2------3----2--|
e---2----------0------3----0--|
  Y la trova es lo que va pegar


   D          A      G
E--------------------3----|
A-------------0-----------|
D--0----------------------|
G---2----------2------0---|
B---3----------2------3---|
e---2----------0------3---|

      A5                  A
E----------------------------------------------------|
A---0---------------------0-------0---4--------------|
D----2-----2--------------2-------------2--0---0-----|
G-----2--2----------------2----------------2---2-----|
B------0------------------2----------------3---3-----|
e-------------------------0----------------2---2-----|
 Estoy seguro te va a fascinar


 (Ritmo bar. Blues)

   1                                2
|------------------|-----------------|------------------|
|------------------|-----------------|------------------|
|------------------|-----------------|-2--2-4-2-2-2-4-2-|
|-2--2-4-2-2-2-4-2-|-2-2-4-2-2-2-4-2-|-0--0-0-0-0-0-0-0-|
|-0--0-0-0-0-0-0-0-|-0-0-0-0-0-0-0-0-|------------------|
|------------------|-----------------|------------------|


 NOTAS
     654321
D    000232
D4/A 000233 BAJO EN LA
D4/B 020033 BAJO EN SI
A    002220
G    300033

Hasta la siguiente vez?
Suggest correction
Give kudos to tab author, rate the tab!
1 2 3 4 5
comments
print report bad tab
guest
You may want to rate the tab now too:
select rating
Wanna post a correction for this tab? Suggest correction