Oops, an error
Loading. Please wait.

Glow ukulele

115 views 3 this week
no commentswrite comment
1 2 3 4 5
1 last vote to show rating
add to favorites
×
Save as Personal and add changes to this tab that will be seen only by you. Learn more ›
×
You can save this tab as Personal to edit and correct it or add notes. All changes will be seen only by you. Learn more »
launch autoscroll
font size
0
reset
transpose
0
reset
display chords
guitar tuner
edit
Autoscroll
slow
fast
+/-
esc
set tempo
stop
Author
Difficulty
About this tab version
A ukulele tab including the fingerpicking section at the start, and full chords. Was this info helpful? Yes No
Strumming
There is no strumming pattern for this song yet. and get +5 IQ
[Verse]
(A: Opening fingerpicking section: "don't lose that glow")
A|-7---------------|-7---------7-----|-10----------10------|-8---------7-----|
E|-----8-------7/8-|-----7---------7-|-----10---------10---|-----5---------5-|
C|---------7-------|---------7-------|----------10-------10|---------5-------|
G|---9---9---9-----|---7---7-----7---|---9----9------------|---5---5-----5---|

A|-8---------10-----|-7---------------|-7---------7-----|----6-6-----6--5---|
E|-----8----------8-|-----8-------7/8-|-----7---------7-|----8-8-----7--7---|
C|---------8--------|---------7-------|---------7-------|-6--6-6--6--5--5---|
G|---8---8------8---|---9---9---9-----|---7---7-----7---|----8-8-----0--0---|

[Chorus] (x2)
(B: Strummed section "It looks so strange to me")
A|--2---3---2---3---|--5---5---4---4---|--0---5---0---5---|--6---6---6---6---|
E|--3---0---3---0---|--6---6---5---5---|--5---5---5---5---|--7---7---7---7---|
C|--4---4---4---4---|--7---7---7---7---|--5---5---5---5---|--5---5---5---5---|
G|--4---0---4---0---|--7---7---6---6---|--5---5---5---5---|--0---0---0---0---|

A|--3-------5-------|--6---6---4/11----|--3---7---3---7---|--4---6---4---6---|
E|--3-------6-------|--6---6---6-------|--5---5---5---5---|--4---4---4---4---|
C|--4-------7-------|--7---7---5-------|--6---6---6---6---|--5---5---5---5---|
G|--5-------8-------|--6---6---0-------|--5---5---5---5---|--4---4---4---4---|

[Verse]
(A: Opening fingerpicking section: "don't lose that glow")
A|-7---------------|-7---------7-----|-10----------10------|-8---------7-----|
E|-----8-------7/8-|-----7---------7-|-----10---------10---|-----5---------5-|
C|---------7-------|---------7-------|----------10-------10|---------5-------|
G|---9---9---9-----|---7---7-----7---|---9----9------------|---5---5-----5---|

A|-8---------10-----|-7---------------|-7---------7-----|----6-6-----6--5---|
E|-----8----------8-|-----8-------7/8-|-----7---------7-|----8-8-----7--7---|
C|---------8--------|---------7-------|---------7-------|-6--6-6--6--5--5---|
G|---8---8------8---|---9---9---9-----|---7---7-----7---|----8-8-----0--0---|


************************************

| /  Slide up

************************************

            
            
Suggest correction
Creating personal tab
Creating personal tab
You can edit any tab online and save it as your Personal.

You can edit, replace or remove any tab part or add personal notes – all changes will be seen only by you.

Personal tabs can be accessed anytime from any device, even offline.
Learn more »
Give kudos to tab author, rate the tab!
1 2 3 4 5
comments
print report bad tab
guest
You may want to rate the tab now too:
select rating
Wanna post a correction for this tab? Suggest correction