Oops, an error
Loading. Please wait.

A Quien Pueda Interesar Tab

32 views 1 this week
no commentswrite comment
1 2 3 4 5
3 more votes to show rating
add to favorites
launch autoscroll
font size
0
reset
how to read this tab
guitar tuner
×
Best way to learn
"A Quien Pueda Interesar"
Autoscroll
slow
fast
+/-
esc
set tempo
stop
Weno, akí os dejo esta tablatura, algo más detallada ke la anterior.
Espero que os guste. A mi por lo menos me encanta.

Intro

e----3-1-0-----------3-1-0-----------------------------3-1-0-------
B----------3-1-0-----------3-1-0-1-3-1-3-1-3-1-3-0-----------3-1-0-
G--2-------------2-2-------------------------------2-2-------------
D------------------------------------------------------------------
A------------------------------------------------------------------
E------------------------------------------------------------------

e------3-1-0-------------------------------3-------3---------------
B------------3-1-0-1-3-1-3-1-3-1-3-0---0-1-----0-1-----0-1-3-5-3-0-
G--2-2-------------------------------2-------0-------0-------------
D------------------------------------------------------------------
A------------------------------------------------------------------
E------------------------------------------------------------------

e--------------3-------3--111..----3-1-0-----------3-1-0-----------
B--1-1-1---0-1-----0-1----222..----------3-1-0-1---------3-1-0-3-0-
G--------2-------0--------222..--2---------------2-----------------
D------------------------------------------------------------------
A------------------------------------------------------------------
E------------------------------------------------------------------

e----3-1-0--------3-1-0--------1--3--0-
B----------3-1-0--------3-1-0--1--3--0-
G--2---------------------------2--4--1-
D------------------------------3--5--2-
A------------------------------3--5--2-
E------------------------------1--3--0-


LAm           DO             FA        SOL   MI
Soy del reino de las sombras, ríete de mí.
LAm           DO     Riff1FA       SOL   MI
Nací bajo los muros de mi barrioooooo

Riff 1 B----3-5-3-------
       G--2-------5-4-5-

LAm           DO         FA        SOL    MI
bajo el peso de la noche  en un antro
LAm           DO          FA         SOL   MI
aún recuerdo tu cara llenándome de espanto

(PLAN MUTE EN ESTOS DOS VERSOS) Sobre estos versos, Riff 2
B---------00111..-00333..-0h5-3-1-3-1-0-1--
G--2222..---------------------------------2  X2 (uno por verso)

LAm          DO                 FA             SOL     MI
No soy un trozo de piedra para que tú me des patadas
LAm          DO              FA              SOL
y aunque tú así lo creas, mejor no me digas nada.

LAm
Quiero que llores
DO
odio que rías
FA
odio que quieras
SOL
quiero que pidas
LAm                  DO  FA
quiero que sufras
           SOL
por tu hipocresía

e------------------------------
B----3-1-X6--0/12-10-8-10-8----
G--2---------------------------
D------------------------------
A------------------------------
E------------------------------


Soy un ser de la noche, apiádate de mí
soy un ser del asfalto nacido de su manto.
No soy ningún dios, necesito razones para vivir
tú que tasas mi valor, ¿qué me puedes decir?

Riff2
Me acusaste por la espalda con desprecio y me pides perdón
pero por mucho que quieras cambiar
mi odio hacia ti nunca cambiará

Quiero que llores
odio que rías
odio que quieras
quiero que pidas
quiero que sufras por tu hipocresía

Solo
e--000..---------1-0-----------------------------------1-0------
B--111..-----0-1------1-0--------0-1-3-1-0---------0-1-----1-0--
G--222..-2-2--------------0-2--2-----------0-2-2-2--------------
D--222..--------------------------------------------------------
A--000..--------------------------------------------------------
E--000..--------------------------------------------------------

e---------------------------------------------------------------
B--/6-8-6-5----8-10-8-6---6--12p10-b12--12p10-b12--12p10-b12--12
G-----------7-----------9---------------------------------------
D---------------------------------------------------------------
A---------------------------------------------------------------
E---------------------------------------------------------------

e---------------------------------------------------
B--1010-88-66-10-10/12p10-b12--12p10-b12--12p10-17--
G---------------------------------------------------
D---------------------------------------------------
A---------------------------------------------------
E---------------------------------------------------

No soy ningún dios, necesito razones para vivir
tú que tasas mi valor, ¿qué me puedes decir?

Riff3                                  Riff3
Quiero que llores                     e----3-1-0--------
odio que rías                         B----------3-1-0--
odio que quieras                      G--2-------------2
quiero que pidas                             Hasta el final
quiero que sufras por tu hipocresía


Weno, pues akí está, si veo que va bien pondré más canciones de este
gran grupo que ya tengo tabuladas.
Por ultimo un gran abrazo a los que me enseñaron a tocar la guitarra,
gracias, y también dar las gracias a este grupo, salvate si puedes,
por esta gran cancion. Hasta pronto.
Si hay dudas, txingurrin_98_99@
Suggest correction
Give kudos to tab author, rate the tab!
1 2 3 4 5
comments
print report bad tab
guest
You may want to rate the tab now too:
select rating
Wanna post a correction for this tab? Suggest correction