Oops, an error
Loading. Please wait.

Wedding Dress Tab

1,662 views 3 this week
1 commentread comment
1 2 3 4 5
excellent!
x 2
add to favorites
launch autoscroll
font size
0
reset
how to read this tab
guitar tuner
Tab Pro tools
  • play this tab
  • loop segment
  • change instrument
  • show fretboard
  • metronome
Autoscroll
slow
fast
+/-
esc
set tempo
stop
Contributor
Difficulty
novice
Artist: Sam Amidon
Title: Wedding Dress
Album: All is Well
Website: http://samamidon.com/

Intro

|------3-3-------3-3-------3-3-------3-3-------3-3-------3-3-------3-3-------3-3---|
|------3-3-------3-3-------3-3-------3-3-------3-3-------3-3-------3-3-------3-3---|
|--0-------------0-0-------0-0-------0-0-------0-0-------0-0-------0-0-------0-0---|
|------------2-------------2-2-------2-2-------2-2-------2-2-------2-2-------2-2---|
|----------------------3---------3---------3---------3---------3---------3---------|
|----------------------------------------------------------------------------------|

Verse

|------3-3-------3-3-------3-3-------3-3-------3-3-------3-3-------3-3-------3-3---|
|------3-3-------3-3-------3-3-------3-3-------3-3-------3-3-------3-3-------3-3---|
|------0-0-------0-0-------0-0-------0-0-------0-0-------0-0-------0-0-------0-0---|
|--0---------2-------------2-2-------2-2-------2-2-------2-2-------2-2-------2-2---|
|----------------------3---------3---------3---------3---------3---------3---------|
|----------------------------------------------------------------------------------|

The verse is played continuously throughout the song


--------

Lyrics

Oh, my little Doney Gal, don't you guess
Better be making your wedding dress
Wedding dress, wedding dress
Better be making your wedding dress

Oh, it's already made, trimmed in red
Dressed all around with a golden thread
Golden thread, golden thread
Dressed all around with a golden thread

Oh, it's already made, trimmed in brown
Dressed all around with a golden crown
Golden crown, golden crown
Dressed all around with a golden crown

Oh, it's already made, trimmed in green
Prettiest thing you ever seen
Ever seen, ever seen
Prettiest thing you ever seen

Oh, it's already made, trimmed in white
Better be ready for Saturday night
Saturday night, Saturday night
Better be ready for Saturday night

Oh, she wouldn't say yes, she wouldn't say no
All she'd do is just sit and sew
Sit and sew, sit and sew
All she'd do is just sit and sew
comments
We did not receive enough feedback on this tab! Please rate:
print report bad tab
1 2 3 4 5
1 comment total.
0 reply
youngtree wrote on April 19 2013, 11:17 am

I loves it. Hypnotic!

I want to post or [tab]
guest
You may want to rate the tab now too:
select rating
Please do not post tabs as comments. Select "correction" instead!