Oops, an error
Loading. Please wait.

Doctor tab

172 views 3 this week
no commentswrite comment
1 2 3 4 5
x 3
add to favorites
×
Save as Personal and add changes to this tab that will be seen only by you. Learn more ›
×
You can save this tab as Personal to edit and correct it or add notes. All changes will be seen only by you. Learn more »
launch autoscroll
font size
0
reset
how to read this tab
guitar tuner
edit
Autoscroll
slow
fast
+/-
esc
set tempo
stop
Author
Difficulty
Tabbed from: https://www.youtube.com/watch?v=k6xf8_Mnxh0

[Intro]
(0:00)
e|----------------1-----------------|-------------------1-------x------|
B|--1---1-----3------3--------------|---------------1-----------x------|
G|--0h2------------------0h(1)p0----|--3--------3---0h2---------x------|
D|--3-------2-----0-------------3---|--3--------3---3-----------x------|
A|-----------------------3----------|--1--(3)/5-----------------x------|
E|----------------------------------|---------------1-----------x------|

e|--1------3--5---1---------x-------|---(2)/3------5----1------x1------|-------------------1-------x------|
B|--3-------------3---------x-------|---(2)/3------3----1------x1------|---------------1-----------x------|
G|--2----2--------0---------x-------|-------------------2------x2------|--3--------3---0h2---------x------|
D|--0-------------0----0----x-------|---(1)/2-----------3------x3------|--3--------3---3-----------x------|
A|----------------2---------x-------|---(2)/3---3----------------------|--1--(3)/5-----------------x------|
E|----------------3---------x-------|-------------------1------x1------|---------------1-----------x------|
                                                             *slap while strum

[Verse]
(0:22)
**I have included the lyrics to show which measure corresponds with what phrases, but the words are not
aligned with specific notes within the measure**

    F                                  Bb           F
e|----------x---------------x-------|-----------------------1---x--1---|
B|--1-------x---------------x-------|---------------1-------1---x--1---|
G|--0h2-----x---------------x-------|--3--------3---0h2-----2---x--2---|
D|--3-------x---------------x-------|--3--------3---3-------3---x--3---|
A|----------x---------------x-------|--1--(3)/5-----------------x------|
E|--1-------x---------------x-------|---------------1-----------x------|
  Well I had a physician,            she barely knew my name

    F                Dm     C          G7           C9
e|-------------------1--------------|--1------------------------x------|
B|--1----1------3----3--3---1-------|--0------------3-----------x------|
G|--0h2--------------2------2-------|--0------------3-----------x------|
D|--3--------2-------0------0-------|--0------------2-----------x------|
A|--------------------------3-------|--2--------1---3-----------x------|
E|----------------------------------|--3------------------------x------|
  and who'd have guessed,            could bloom such a pretty face. Well,
                 that flowery dress

    Bb               Bbm               F       A7      Bb
e|--1-------x--------1------x-------|----------0-------1---------------|
B|----------x--------2------x-------|--1-------2-----------------------|
G|--3-------x--------3------x-------|--0h2-----0-------3---------------|
D|--3-------x--------3------x-------|--3-------2-------3---------------|
A|--1-------x--------1------x-------|----------0-------1---------------|
E|----------x---------------x-------|--1-------------------------------|
  I'm not one to mix up, where you   work and where you play

    F               Dm                 G7           C
e|------------------1---------------|--1-------------------------------|-----------------------1---x--1---|
B|--1---------------3---------------|--0------------1------------------|---------------1-------1---x--1---|
G|--0h2-------------2---------------|--0------------0------------------|--3--------3---0h2-----2---x--2---|
D|--3---------------0---------------|--0------------2------------------|--3--------3---3-------3---x--3---|
A|----------------------------------|--2------------3------------------|--1--(3)/5-----------------x------|
E|--1-------------------------------|--3-------------------------------|---------------1-----------x------|
  But ya better bet, I was sick to death, from January, until first of May


[Chorus]
(0:55)
e|----------------1-----------------|---------------------------x------|
B|--1---1-----3------3--------------|---------------1-----------x------|
G|--0h2------------------0h(1)p0----|--3--------3---0h2---------x------|
D|--3-------2-----0-------------3---|--3--------3---3-----------x------|
A|-----------------------3----------|--1--(3)/5-----------------x------|
E|--1-------------------------------|---------------1-----------x------|
  I said, tear me open and           doctor don't ya see?
                stitch me shut, but

e|--1---3--5------1---------x---1---|---(2)/3------x--------1--x1------|---------------------------x------|
B|--3-------------3---------x---3---|---(2)/3------x----1------x1------|---------------1-----------x------|
G|--2-------------0--0------x---0---|--------------x----0h2----x2------|--3--------3---0h2---------x------|
D|--0----------------0------x---0---|---(1)/2------x----3------x3------|--3--------3---3-----------x------|
A|--------------2-----------x---2---|---(2)/3------x-------------------|--1--(3)/5-----------------x------|
E|------------3-------------x---3---|--------------x----1------x1------|---------------1-----------x------|
  This ol fever's gonna burn me up   if you don't attend to me


[Verse]
(1:12)
    F                                  Bb           F
e|----------x---------------x-------|-----------------------1---x------|
B|--1-------x---------------x-------|---------------1-----------x------|
G|--0h2-----x---------------x-------|--3--------3---0h2---------x------|
D|--3-------x---------------x-------|--3--------3---3-----------x------|
A|----------x---------------x-------|--1--(3)/5-----------------x------|
E|--1-------x---------------x-------|---------------1-----------x------|
  Well I listed my symptoms          but she saw, through it all

    F                Dm    C          G7           C9
e|-------------------1--------------|--1------------------------x------|
B|--1----1------3----3--3-----------|--0------------3-----------x------|
G|--0h2--------------2-----0h(1)p0--|--0------------3-----------x------|
D|--3--------2-------0------------3-|--0------------2-----------x------|
A|-------------------------3--------|--2--------1---3-----------x------|
E|----------------------------------|--3------------------------x------|
  Said "it's allergies               and the cough is just a cough
               that make you sneeze,

    Bb               Bbm               F       A7      Bb
e|--1----------------1--------------|----------0-------1--------x------|
B|-------------------2--------------|--1-------2----------------x------|
G|--3----------------3--------------|--0h2-----0-------3--------x------|
D|--3----------------3--------------|--3-------2-------3--------x------|
A|--1----------------1--------------|----------0-------1--------x------|
E|----------------------------------|--1------------------------x------|
  Yeah the only thing                is too much alcohol..."
              that's wrong with you,

    F               Dm                 G7      C      F
e|------------------1---------------|--1-------------------------------|
B|--1---------------3---------------|--0-------1------1----1--1-----1--|
G|--0h2-------------2---------------|--0-------0------0h2--2--2-----2--|
D|--3---------------0---------------|--0-------2------3----3--3-----3--|
A|----------------------------------|--2-------3-----------------------|
E|--1-------------------------------|--3--------------1----1--1-----1--|
  So I ran home and grabbed the phone and gave her another call.


[Chorus]
(1:39)
e|-------------------1--------------|---------------------------x------|
B|--1---1------1-----3-------1------|---------------1-----------x------|
G|--0h2-2------------2-------0------|--3--------3---0h2---------x------|
D|--3---3---0h2---0----------2------|--3--------3---3-----------x------|
A|-----------------------3---3------|--1--(3)/5-----------------x------|
E|--1-------------------------------|---------------1-----------x------|
  I said, tear me open and           doctor don't ya see?
                stitch me shut, but

e|--1---3--5------1---------x---1---|---(2)/3------x--------1--x1------|
B|--3-------------3---------x---3---|---(2)/3------x----1------x1------|
G|--2-------------0--0------x---0---|--------------x----0h2----x2------|
D|--0-----------0----0------x---0---|---(1)/2------x----3------x3------|
A|--------------------------x---2---|---(2)/3------x-------------------|
E|------------3-------------x---3---|--------------x----1------x1------|
  This ol fever's been burning me up since you laid hands on me

e|----------------1-----------------|----------------------1----x------|
B|--1---1-----3------3--------------|---------------1-----------x------|
G|--0h2------------------0h(1)p0----|--3--------3---0h2---------x------|
D|--3-------2-----0-------------3---|--3--------3---3-----------x------|
A|-----------------------3----------|--1--(3)/5-----------------x------|
E|--1-------------------------------|---------------1-----------x------|
  Cause I been sick,                 and now I can barely breathe
              since I first saw you

e|--1---3--5------1---------x-------|---(2)/3--------------------------|----------------------------------|
B|--3-------------3---------x-------|---(2)/3--------------------------|----------------------------------|
G|--2-------------0--0------x-------|----------------------------------|------(2)/3--(2)/3----------------|
D|--0-----------0----0------x-------|---(1)/2--------------------------|--0-1-(1)/2--(1)/2----------------|
A|--------------------------x-------|---(2)/3--------------------------|------(2)/3--(2)/3----------------|
E|------------3-------------x-------|----------------------------------|----------------------------------|
  with this ol fever just            And miss doctor                               you're just what I need
                      burning me up


[Bridge]
(2:09)
    Dm             G7                  C            F
e|------1--x--1--------1--x--1--1---|---------x--------------x---------|
B|------3--x--3--------0--x--0--0---|------1--x--1--------1--x--1------|
G|------2--x--2--------0--x--0--0---|------0--x--0--------0h2x--2------|
D|--0---0--x--0--------0--x--0--0---|------2--x--2--------3--x--3------| x4
A|---------x-----0-----2--x--2--2---|--3---3--x--3-----------x---------|
E|---------x-------3---3--x--3--3---|---------x-----3--1--1--x--3------|
                             so would you stay with me
  aw if you're free             would you stay with me?
  come on baby please?          would you stay
  aw if you're free             would you stay with me?

[Verse]
(2:35)
    F                                  Bb           F
e|----------x---------------x-------|---------------------------x------|
B|--1-------x---------------x-------|---------------1-----------x------|
G|--0h2-----x---------------x-------|--3--------3---0h2---------x------|
D|--3-------x---------------x-------|--3--------3---3-----------x------|
A|----------x---------------x-------|--1--(3)/5-----------------x------|
E|--1-------x---------------x-------|---------------1-----------x------|
  So she ran her tests and           sneak a couple of peeks
               I did my best not to

    F                Dm    C          G7           C9
e|-------------------1--------------|--1------------------------x------|
B|--1----1------3----3--3-----------|--0------------3-----------x------|
G|--0h2--------------2-----0h(1)p0--|--0------------3-----------x------|
D|--3--------2-------0------------3-|--0------------2-----------x------|
A|-------------------------3--------|--2--------1---3-----------x------|
E|----------------------------------|--3------------------------x------|
  But I lost my sight                and can ya really blame me
            in those big green eyes,

    Bb               Bbm               F       A7      Bb
e|--1----------------1--------------|----------0-------1--------x------|
B|-------------------2--------------|--1-------2----------------x------|
G|--3----------------3--------------|--0h2-----0-------3--------x------|
D|--3----------------3--------------|--3-------2-------3--------x------|
A|--1----------------1--------------|----------0-------1--------x------|
E|----------------------------------|--1------------------------x------|
  Cause that golden hair             a wild flower threaded through.
                  was made to wear

    F               Dm                 G7      C      F
e|------------------1---------------|--1-------------------------------|
B|--1---------------3---------------|--0-------1------1----1--1-----1--|
G|--0h2-------------2---------------|--0-------0------0h2--2--2-----2--|
D|--3---------------0---------------|--0-------2------3----3--3-----3--|
A|----------------------------------|--2-------3-----------------------|
E|--1-------------------------------|--3--------------1----1--1-----1--|
  So on the first of may             and be my month of June.
               I asked her to stay,

[Chorus]
(3:06)
e|----------x---------------x-------|---------------------------x------|
B|--1-------x---------------x-------|---------------1-----------x------|
G|--2-------x---------------x-------|--3--------3---0h2---------x------|
D|--3-------x---------------x-------|--3--------3---3-----------x------|
A|----------x---------------x-------|--1--(3)/5-----------------x------|
E|--1-------x---------------x-------|---------------1-----------x------|
  I said, tear me open and           baby don't ya see?
                stitch me shut, but

e|--1---3--5------1---------x---1---|---(2)/3------x--------1--x1------|
B|--3-------------3---------x---3---|---(2)/3------x----1------x1------|
G|--2-------------0--0------x---0---|--------------x----0h2----x2------|
D|--0-----------0----0------x---0---|---(1)/2------x----3------x3------|
A|--------------------------x---2---|---(2)/3------x-------------------|
E|------------3-------------x---3---|--------------x----1------x1------|
  This ol fever's been burning me up since you laid hands on me

e|----------------1-----------------|----------------------1----x------|
B|--1---1-----3------3--------------|---------------1-----------x------|
G|--0h2------------------0h(1)p0----|--3--------3---0h2---------x------|
D|--3-------2-----0-------------3---|--3--------3---3-----------x------|
A|-----------------------3----------|--1--(3)/5-----------------x------|
E|--1-------------------------------|---------------1-----------x------|
  Cause I been sick,                 and now I can barely breathe
              since I first saw you

e|--1---3--5------1---------x-------|---(2)/3--------------------------|----------------------------------|
B|--3-------------3---------x-------|---(2)/3--------------------------|----------------------------------|
G|--2-------------0--0------x-------|----------------------------------|------(2)/3--(2)/3----------------|
D|--0-----------0----0------x-------|---(1)/2--------------------------|--0-1-(1)/2--(1)/2----------------|
A|--------------------------x-------|---(2)/3--------------------------|------(2)/3--(2)/3----------------|
E|------------3-------------x-------|----------------------------------|----------------------------------|
  with this ol fever just            And miss doctor                               you're just what I need
                      burning me up

[Outro]
(3:36)
e|----------------1-----------------|-------------------1-------x------|
B|--1---1-----3------3--------------|---------------1-----------x------|
G|--0h2------------------0h(1)p0----|--3--------3---0h2---------x------|
D|--3-------2-----0-------------3---|--3--------3---3-----------x------|
A|-----------------------3----------|--1--(3)/5-----------------x------|
E|--1-------------------------------|---------------1-----------x------|

e|--1------3--5---1---------x-------|-----------------------1---x------|
B|--3-------------3---------x-------|---(2)/3-(2)/3-----1-------x------|
G|--2----2--------0---------x-------|---(2)/3-(2)/3-----0h2-----x------|
D|--0-------------0---------x-------|---(1)/2-(1)/3-----3-------x------|
A|----------------2---------x-------|---(2)/3-(2)/3-------------x------|
E|----------------3---------x-------|-------------------1-------x------|

e|----------------------------------|----------------------------------|---------------1------------------|
B|--10---------------10-------------|---6----------6------8------------|--1-------1-----------------------|
G|-----------10---------------10----|---7----------6------8------------|--0h2-----------------------------|
D|------10--------10-----10---------|---7----------6------8------------|--3-------------------------------|
A|--8----------------6--------------|---5----------4------6------------|----------------------------------|
E|----------------------------------|----------------------------------|--1-------------------------------|
  So would           you               stay        with                 me?
    *bar 10th with pinky


************************************

| x   Dead note
| (n) Ghost note
| h   Hammer-on
| p   Pull-off
| /   Slide up

************************************

            
            
Suggest correction
Creating personal tab
Creating personal tab
You can edit any tab online and save it as your Personal.

You can edit, replace or remove any tab part or add personal notes – all changes will be seen only by you.

Personal tabs can be accessed anytime from any device, even offline.
Learn more »
Give kudos to tab author, rate the tab!
1 2 3 4 5
comments
print report bad tab
guest
You may want to rate the tab now too:
select rating
Wanna post a correction for this tab? Suggest correction